Undertale - Once Upon A Time Uke tab by Toby Fox

Ukulele Tab without chords.

9.2/10
PrintAdd tab to your SongBook

Tablature / Chords (Simplified Song)

Font size: A- A A+

Artist: 
Album:  unknown
Key: unknownTablature (no chords)
A|---------------------------------------------------| Intro
E|----8--3---------8------------1--8--10---8---3---1-|
C|-0-----------5------0-----0------------------------|
G|---------------------------------------------------| x2


A|----------------------------------7----6-5-3-------| Part 1
E|-----8---5---3---1---0---1----3--------------------|
C|--0------------------------------------------------|
G|---------------------------------------------------|


A|---------------------------------------------------| Part 2
E|----8---5---3---1---3---5---0-----3----3---1--0--1-|
C|-2-------------------------------------------------|
G|---------------------------------------------------| repeat Part 1 and 2


A|--3------------------------------------------------|
E|-----1--3--1-----1--3--1-----1--3--6--5--3--2------|
C|--------------0-----------0--------------------0---|
G|---------------------------------------------------| x4

Uke tab by , 17 Jun 2016

Tab comments (2)

Something to say?
Share your strumming patterns, chords or tips to play this tab! ;)
Filter by:
beetlesnail avatar
ty !! most accurate one ive seen so far ,’-) the only thing is the 2 at the end should be a 1
07 Oct 2020
Comment
turtleybutt avatar
that last 2 should be a 1
02 Jan 2018
Comment

Top Tabs & Chords by Toby Fox, don't miss these songs!

About this song: Undertale - Once Upon A Time

No information about this song.

Did you cover Undertale - Once Upon A Time on your Ukulele? Share your work!
Submit a cover