Futurama Theme Music Uke tab by Themes

Ukulele Tab without chords.

9.3/10
PrintAdd tab to your SongBook

Tablature / Chords (Full Song)

Font size: A- A A+

Artist: 
Year:  2016
Key: unknownTablature (no chords)
a|-----0-0--------------0-0-------------------------
e|-0-0---------0-0--0-0---------3-3-2-0-------------
c|---------2-2--------------2-2---------------------
a|--------------------------------------------------

a|-0------------------0---2-2-----------------------
e|---4------2-0-0---0---4-----3-3-2-2-0-------------
c|-----2--2-----------------------------------------
a|--------------------------------------------------

Uke tab by , 14 Jan 2010

Tab comments (0)

No comment yet :(
Need help, a tip to share, or simply want to talk about this song? Start the discussion!

Something to say?
Share your strumming patterns, chords or tips to play this tab! ;)

Top Tabs & Chords by Themes, don't miss these songs!

About this song: Futurama Theme Music

No information about this song.

Did you cover Futurama Theme Music on your Ukulele? Share your work!
Submit a cover