Hello My Old Heart Uke tab by The Oh Hello's

5 Chords used in the song: Am, C, F, G, Dm

Add tab to your SongBook
Tablature / ChordsFont size: A- A A+

Don't know how to read a tab or a chord ? Check out these uke lessons:

Detailed guide to strumming and picking
How to read uke tabs
Reading chord diagrams

Riff 1 
H H H H
A|---0-------3-----0--------7-------0-------3-------0--------7---------------|
E|---------------------------------------------------------------------------|
C|---------------------------------------------------------------------------|
G|------0-2------------0-2-------------0-2-------------0-2-------------------|

Riff 2
(Ba dum ba's)

H H H H
A|---0-------3--------------7---------------3---------------3----------------|
E|----------------------------------1---------------1------------------------|
C|-----------------0---------------------------------------------------------|
G|------0-2------------0-2-------------0-2-------------0-2-------------------|
H H H H H P
A|---0-------3------------------------------3--------------------------------|
E|--------------------------0-------1---------------1-3----------------------|
C|-----------------0---------------------------------------------------------|
G|------0-2------------0-2-------------0-2-------------2-5-2--0-2------------|


Am Am C C
hello my old heart
F F F F
how have you been
Am Am C C F F F F
are you still there inside my chest?
Am Am C C
I've been so worried
F F F F
you've been so still
Am Am C C F F F F
barely beating at all


G G Am Am C C F F
oh, don't leave me here alone
C C F F
don't tell me that we've grown
G G Am Am
for having loved a little while
G G Am Am C C F F
oh, I don't want to be alone
C C F F
I want to find a home
G G Dm Dm
and I want to share it with you


Am Am C C F F
hello my old heart
it's been so long
since I've given you away
and every day I add another stone
to the walls I built around you
to keep you safe


G G Am Am C C F F
oh, don't leave me here alone
C C F F
don't tell me that we've grown
G G Am Am
for having loved a little while
G G Am Am C C F F
oh, I don't want to be alone
C C F F
I want to find a home
G G Dm Dm
and I want to share it with you


Am Am C C F F
hello my old heart
how have you been?
how is it, being locked away?
well don't you worry
in there, you're safe
and it's true, you'll never beat
but you'll never break



Dm Dm C C
nothing lasts forever
Dm Dm C C
some things aren't meant to be
Dm Dm Am Am
but you'll never find the answer
Am Am G G
until you set your old heart free
F F F F
until you set your old heart free


Ending: C C F F C C F F Am Am F F C C

 

Tab comments (0)
No comment yet :(
Need help, a tip to share, or simply want to talk about this song? Start the discussion!

You must be logged in to join the discussion
or Register

 

About this song

No information about this song.