With A Little Help From My Friends Uke tab by The Beatles

Ukulele Tab without chords.

Add tab to your SongBook
Tablature / ChordsFont size: A- A A+

Don't know how to read a tab or a chord ? Check out these uke lessons:

Detailed guide to strumming and picking
How to read uke tabs
Reading chord diagrams

A|-----------------------------------------------------------------------------------|
E|-0-----1----3--3--1--0-------0---1--1-----1----1-----0-----------------------0-----|
C|-------------------------2--------------------------------2--2---2----0---2--------|
G|-----------------------------------------------------------------------------------|
What would you do if I sang out of tune, Would you stand up and walk out on me?
A|-----------------------------------------------------------------------------------|
E|-0---1----3----3---1---0---------0--1---1----1---1----0----------------------------|
C|----------------------------2-----------------------------2---2---2--0----2---0----|
G|-----------------------------------------------------------------------------------|
Lend me your ears and I'll sing you a song, And I'll try not to sing out of key
A|----------------------------------------------------------------------------------------------|
E|-3----0----------------------------------------3----0-----------------------------------------|
C|---0-----2---0---0---0-----0----0---0----0--------0-----2-----0---0---0----0----0-----0--0----|
G|----------------------------------------------------------------------------------------------|
Oh I get by with a little help from my friends,Mm I get high with a little help from my friends
A|-----------------------------------------------------------------------------------|
E|-3---------0-----------------------------------------------------------------------|
C|----0--2-------2----0--0--0-------0----0---0---0-----------------------------------|
G|-----------------------------------------------------------------------------------|
Mm I'm gon-na try with a little help from my friends

What do I do when my love is away? Does it worry you to be alone?
How do I feel by the end of the day? Are you sad because you're on your own?
No I get by with a little help from my friends, Mm I get high with a little help from my friends
Mm gonna try with a little help from my friends

A|--------3---3--3--2--0-------------------------------------------------------------|
E|-0--3-----------------------0----0------0------------------------------------------|
C|-------------------------0-----------2------2--0-----------------------------------|
G|-----------------------------------------------------------------------------------|
Do you need an-ny bo-dy? I need some bo-dy to love
A|---------3--3--3--2--0-------------------------------------------------------------|
E|-0----3---------------------0---0-------0------------------------------------------|
C|-------------------------0-----------2-----2---0-----------------------------------|
G|-----------------------------------------------------------------------------------|
Could it be an-ny bo-dy? I want some bo-dy to love

Would you believe in a love at first sight?
Yes I'm certain that it happens all the time
What do you see when you turn out the light?
I can't tell you, but I know it's mine

Oh I get by with a little help from my friends
Mm I get high with a little help from my friends
Oh I'm gonna try with a little help from my friends

Do you need anybody?,I just need someone to love
Could it be anybody?, I want somebody to love

Oh I get by with a little help from my friends
Mm gonna try with a little help from my friends
Oh I get high with a little help from my friends
Yes I get by with a little help from my friends
With a little help from my friends

 

Tab comments (2)
You must be logged in to join the discussion
or Register

 

ijturner12 avatar
flag for US(ISO2) (Charlottesville)
Some of the open C strings should be higher, as they are in the song.
25 Sep 2018
emdreon avatar
It's not at the same key as the original recording but really good.
20 Mar 2018
About this song

"With a Little Help from My Friends" is the second track from the Beatles Sgt. Pepper's Lonely Heart's Club Band. It was written by John Lennon and Paul McCartney. The song was written for Ringo Starr, who sings the lead vocals as the character of "Billy Shears."Read more on Last.fm.