When I'm 64 Uke tab by The Beatles

7 Chords used in the song: C, G7, C7, F, F#dim, A7, D7

Add tab to your SongBook
Tablature / ChordsFont size: A- A A+

Don't know how to read a tab or a chord ? Check out these uke lessons:

Detailed guide to strumming and picking
How to read uke tabs
Reading chord diagrams

A|------------------------------0----------3----3----5----7----5----3----0----|
E|--0-------0---------0-------------------------------------------------------|
C|------3---------------------------------------------------------------------|
G|---------------0---------0----------0---------------------------------------|



A|---3----5----3-----------------------------|
E|-------------------------------------------|
C|-------------------------------------------|
G|-------------------------------------------|

C C G7 G7
When I get older losing my hair many years from now


A|----------------------------------------|
E|----------------------------------------|
C|----------------------------------------|
G|--0----2----4----2----0-----------------|


G7 G7
Will you still be sending me a valentine?



A|--2---3---4---5-------------------------|
E|----------------------------------------|
C|----------------------------------------|
G|----------------------------------------|
Birth-day greet-ings

C C
Bottle of Wine

C C C7 C7
If I'd been out 'till quarter to 3, Would you lock the door?

F F F#dim F#dim C C A7 A7
Would you still need me, Will you still feed me?

D7 D7 G7 G7 C C
When I'm 64?

 

Tab comments (0)
No comment yet :(
Need help, a tip to share, or simply want to talk about this song? Start the discussion!

You must be logged in to join the discussion
or Register

 

About this song

No information about this song.