Something Uke tab by The Beatles

13 Chords used in the song: C, Cmaj7, C7, F, D, D7, G, Am, AmM7, Am7, A, Amaj7, F#m

10/10
PrintAdd tab to your SongBook

Tablature / Chords (Full Song)

Font size: A- A A+

Artist: 
Album: 
Year:  1969
Difficulty: 
2.58
(Beginner)
Key: unknownChords and Tablature
Simple fingerpicking pattern
A|---x-----x----------|
E|---x-----x----------|
C|------x-----x-------|
G|---x-----x----------|

[Intro]

A|---0-3-0-1-2-----|
E|-----------------|
C|-----------------|
G|-----------------|

[Verse 1]
C C Cmaj7 Cmaj7
Something in the way she moves
C7 C7 F F
Attracts me like no other lover
D D D7 D7 G G
Something in the way she woos me

[Chorus]
Am Am AmM7 AmM7
Don't wanna leave her now
Am7 Am7 D7 D7
You know I believe and how

[Riff]
A|---0-3-0-1-2-----|
E|-----------------|
C|-----------------|
G|-----------------|

[Verse 2]
C C Cmaj7 Cmaj7
Somewhere in her smile she knows
C7 C7 F F
That I don't need no other lover
D D D7 D7 G G
Something in her style that shows me

[Chorus]
Am Am AmM7 AmM7
Don't wanna leave her now
Am7 Am7 D7 D7
You know I believe and how

[Riff]
A|---0-3-0-1-2-----|
E|-----------------|
C|-----------------|
G|-----------------|

[Bridge]
A A Amaj7 Amaj7 F#m F#m A A
You're asking me will my love grow
D D G G A A
I don't know, I don't know
A A Amaj7 Amaj7 F#m F#m A A
You stick around now it may show
D D G G [ C C ]
I don't know, I don't know

[Solo]
C C Cmaj7 Cmaj7 C7 C7 F F F F Am Am
D D D7 D7 G G
Am Am AmM7 AmM7 Am7 Am7 D7 D7

[Riff]
A|---0-3-0-1-2-----|
E|-----------------|
C|-----------------|
G|-----------------|

[Verse 3]
C C Cmaj7 Cmaj7
Something in the way she knows
C7 C7 F F
And all I have to do is think of her
D D D7 D7 G G
Something in the things she shows me

[Chorus]
Am Am AmM7 AmM7
Don't wanna leave her now
Am7 Am7 D7 D7
You know I believe and how...

A|---0-3-0-1-2-----|
E|-----------------|
C|-----------------|
G|-----------------|

⇢ Not happy with this tab? View 8 other version(s)

Uke tab by , 11 Aug 2020

Tab comments (1)

Something to say?
Share your strumming patterns, chords or tips to play this tab! ;)
Filter by:
MarkoLarko avatar
mobile flag for RU(ISO2) (Novosibirsk)
Oh, wow ☺️
(Love it sm!)
16 Aug 2020
Comment

Top Tabs & Chords by The Beatles, don't miss these songs!

About this song: Something

No information about this song.

Did you cover Something on your Ukulele? Share your work!
Submit a cover