Something Uke tab by The Beatles

Ukulele Tab without chords.

10/10
PrintAdd tab to your SongBook

Tablature / Chords (Full Song)

Font size: A- A A+

Artist: 
Album: 
Year:  1969
Difficulty: 
2.7
(Beginner)
Key: unknownTablature (no chords)
C C          Cmaj7 Cmaj7
A|----------------------------------------|
E|-----3----------3-3---------------------|
C|-2/4---4----2/4-----4-------------------|
G|----------------------------------------|


C7 C7 F F
A|------------1-3-3--5/3-7/5-3------------|
E|-----3-5-3-------------------5----------|
C|-2/4------------------------------------|
G|----------------------------------------|


D D G G
A|----3-3------------------2-1-0----------|
E|-3/5--------3-3-5--8-5-5-------3--------|
C|---------2/4----------------------------|
G|----------------------------------------|


Am Am Ammaj7 Ammaj7 Am7 Am7 D D
A|-0-3-0-5-0-3-0-----7-5-3-5-7-3-0--------|
E|-0---0---0---0-----0---0---0---2--------|
C|-0---0---0---0-----0---0---0---2--------|
G|-2---2---2---1-----0---0---0---2--------|


F F Eb Eb G G
A|-0-3/2-0-1--2-3-------------------------|
E|-1-------3--3-0-------------------------|
C|-0-------3--2-0-------------------------|
G|-2-------0--0-0-------------------------|

⇢ Not happy with this tab? View 8 other version(s)

Uke tab by , 04 Jan 2015

Tab comments (0)

No comment yet :(
Need help, a tip to share, or simply want to talk about this song? Start the discussion!

Something to say?
Share your strumming patterns, chords or tips to play this tab! ;)

Top Tabs & Chords by The Beatles, don't miss these songs!

About this song: Something

No information about this song.

Did you cover Something on your Ukulele? Share your work!
Submit a cover