Michelle Uke tab by The Beatles

7 Chords used in the song: F, Bbm7, Eb, C#, C, Fm, G#7

7.2/10
PrintAdd tab to your SongBook

Tablature / Chords (Full Song)

Font size: A- A A+

Artist: 
Album: 
Year:  1965
Difficulty: 
5.36
(Intermediate)
Key: unknownChords and Tablature
INTRO

A --------3------3------3------3------3---1------1/3-3----3---------------------|
E --------4------4------4------4------1---1---4--1/3-3----3---------------------|
C --3/5------4------3------2------1-------1---1---------0---0-------------------|
G ------------------------------------------------------------------------------|


VERSE

F F Bbm7 Bbm7
Michelle, ma belle.

Eb Eb C# C# C C
These are words that go together well,

C# C# C C
My Michelle.

Michelle, ma belle.
Sont les mots qui vont trè bien ensemble,
Trè bien ensemble.

CHORUS

Fm Fm
I love you, I love you, I love you.

G#7 G#7 C# C#
That's all I want to say.

C C Fm Fm
Until I find a way, I will


say the only words I know that you'll understand.

A --------3------3------3------3------3---1------1/3-3----3---------------------|
E --------4------4------4------4------1---1---4--1/3-3----3---------------------|
C --3/5------4------3------2------1-------1---1---------0---0-------------------|
G ------------------------------------------------------------------------------|



Michelle, my belle.
Sont des mots qui vont très bien ensemble,
Très bien ensemble.

CHORUS

I need to, I need to, I need to.
I need to make you see,
Oh, what you mean to me.
Until I do I'm hoping you will
Know what I mean.

I love you...

SOLO (play the same as in the verse)

CHORUS

I want you, I want you, I want you.
I think you know by now
I'll get to you somehow.
Until I do I'm telling you so
You'll understand.

Michelle, my belle.
Sont des mots qui vont très bien ensemble,
Très bien ensemble.

I will say the only words I know that
You'll understand, my Michelle.

⇢ Not happy with this tab? View 2 other version(s)

Uke tab by , 17 Apr 2011

Tab comments (3)

Something to say?
Share your strumming patterns, chords or tips to play this tab! ;)
Filter by:
phantomviola avatar
I love the tab part (intro) but the lyrics are a little confusing without being written out.
22 Jun 2011
Comment
ukematt avatar
flag for US(ISO2) (San Jose)
Very nice and sounds very good. Impressive.
07 May 2011
Comment
MikePat28 avatar
Good work.
30 Apr 2011
Comment

Top Tabs & Chords by The Beatles, don't miss these songs!

About this song: Michelle

"Michelle" is a Grammy Award winning love ballad by the Beatles, mainly written by Paul McCartney, which is featured on their Rubber Soul album. The song departs from most of the Beatles' other recordings in that some of the lyrics are in French. Although the song is a famous McCartney composition, individuals contributed to the song. Beatles producer George Martin said he wrote the lead guitar melody, which is played twice

Did you cover Michelle on your Ukulele? Share your work!
Submit a cover