If I Fell Uke tab by The Beatles

9 Chords used in the song: Ebm, C#, D, A, F#m, Em, Bbm, G, Gm

Add tab to your SongBook
Tablature / ChordsFont size: A- A A+

Don't know how to read a tab or a chord ? Check out these uke lessons:

Detailed guide to strumming and picking
How to read uke tabs
Reading chord diagrams

If  I

Ebm Ebm D D
fell in love with you would you promise to be true and

C# C# Bbm Bbm
Help me understand 'cause I've

Ebm Ebm D D
been in love before and I found that love was more than

Em Em A A
just holding hands If I

D D Em Em F#m F#m
give my heart to
A|----5-------5-------2-------2--|----4-------4-------4-------4--|
E|--------2-------0-------0------|2-------2-------2-------2------|
C|2------------------------------|-------------------------------|
G|-------------------------------|-------------------------------|
you I must be sure from the

A|2---------------2--------------|0---------------0--------------|
E|----0-------0-------0-------0--|----0-------0-------0-------0--|
C|-------------------------------|-------------------------------|
G|--------4---------------4------|--------2---------------2------|
D D Em Em F#m F#m
ve..............ry start that

A|----5-------5-------2-------2--|----4-------4-------4-------4--|
E|--------2-------0-------0------|2-------2-------2-------2------|
C|2------------------------------|-------------------------------|
G|-------------------------------|-------------------------------|
Em Em A A
you will love me more than

A|2---------------2--------------|0---------------0--------------|
E|----0-------0-------0-------0--|----0-------0-------0-------0--|
C|-------------------------------|-------------------------------|
G|--------4---------------4------|--------2---------------2------|
D D Gm Gm A A
her If I

A|----5-------5-------5----------|----5---------------7----------|
E|--------2-------2-------2------|6-----------6---5-----------5--|
C|2------------------------------|-------------------------------|
G|-------------------------------|-------------------------------|
D D Em Em F#m F#m
trust in you oh

A|----5-------5-------2-------2--|----4-------4-------4-------4--|
E|--------2-------0-------0------|2-------2-------2-------2------|
C|2------------------------------|-------------------------------|
G|-------------------------------|-------------------------------|
Em Em A A
please don't run and hide If I

A|2---------------2--------------|0---------------0--------------|
E|----0-------0-------0-------0--|----0-------0-------0-------0--|
C|-------------------------------|-------------------------------|
G|--------4---------------4------|--------2---------------2------|
D D Em Em F#m F#m
love you too oh

A|----5-------5-------2-------2--|----4-------4-------4-------4--|
E|--------2-------0-------0------|2-------2-------2-------2------|
C|2------------------------------|-------------------------------|
G|-------------------------------|-------------------------------|
Em Em A A
please don't hurt my pride like

A|2---------------2--------------|0---------------0--------------|
E|----0-------0-------0-------0--|----0-------0-------0-------0--|
C|-------------------------------|-------------------------------|
G|--------4---------------4------|--------2---------------2------|
D D
her 'cause I couldn't stand the pain

A|0---------------0--------------|0---------------0--------------|
E|-------------------------------|-------------------------------|
C|----2-------2-------2-------2--|----2-------2-------2-------2--|
G|--------2---------------2------|--------2---------------2------|
G G Gm Gm
and I would be

A|----5-------5-------5----------|----5---8---5-------5---8------|
E|3---------------3--------------|3---------------3--------------|
C|-------------------------------|-------------------------------|
G|--------0---------------0------|-------------------------------|
D D
sad If our new love was in

A|-------------------------------|------------5------------------|
E|3-------1-------3-------1------|--------2-------2--------------|
C|----2-------2-------2-------2--|2------------------------------|
G|-------------------------------|----2--------------------------|
A A D D Em Em
vain So I hope you

A|-------------------------------|----5-------5-------2-------2--|
E|-------------------------------|--------2-------0-------0------|
C|-------------------------------|2------------------------------|
G|-------------------------------|-------------------------------|
F#m F#m Em Em
see that I would

A|----4-------4-------4-------4--|2---------------2--------------|
E|2-------2-------2-------2------|----0-------0-------0-------0--|
C|-------------------------------|-------------------------------|
G|-------------------------------|--------4---------------4------|
A A D D Em Em
love to love you and that

A|0---------------0--------------|----5-------5-------2-------2--|
E|----0-------0-------0-------0--|--------2-------0-------0------|
C|-------------------------------|2------------------------------|
G|--------2---------------2------|-------------------------------|
F#m F#m Em Em
she will cry when

A|----4-------4-------4-------4--|2---------------2--------------|
E|2-------2-------2-------2------|----0-------0-------0-------0--|
C|-------------------------------|-------------------------------|
G|-------------------------------|--------4---------------4------|
A A D D
she learns we are two 'cause I

A|0---------------0--------------|0---------------0--------------|
E|----0-------0-------0-------0--|-------------------------------|
C|-------------------------------|----2-------2-------2-------2--|
G|--------2---------------2------|--------2---------------2------|
G G
couldn't stand the pain and I

A|0---5-------5---0---5-------5--|----5-------5-------5-------5--|
E|-------------------------------|3---------------3--------------|
C|-------------------------------|-------------------------------|
G|--------2---------------2------|--------0---------------0------|
Gm Gm
would be sad If our new

A|----5---8---5-------5---8---5--|----5---8---5-------5---8---5--|
E|3---------------3--------------|3---------------3--------------|
C|-------------------------------|-------------------------------|
G|-------------------------------|-------------------------------|
D D A A
love was in vain So I

A|-----5------5------------------|0-------4-------4--------------|
E|--------2-------2--------------|----0-------0------------------|
C|2------------------------------|-------------------------------|
G|-------------------------------|-------------------------------|
D D Em Em F#m F#m
hope you see that

A|----5-------5-------2-------2--|----4-------4-------4-------4--|
E|--------2-------0-------0------|2-------2-------2-------2------|
C|2------------------------------|-------------------------------|
G|-------------------------------|-------------------------------|
Em Em A A
I would love to love you

A|2---------------2--------------|0---------------0--------------|
E|----0-------0-------0-------0--|----0-------0-------0-------0--|
C|-------------------------------|-------------------------------|
G|--------4---------------4------|--------2---------------2------|
D D Em Em F#m F#m
and that she will

A|----5-------5-------2-------2--|----4-------4-------4-------4--|
E|--------2-------0-------0------|2-------2-------2-------2------|
C|2------------------------------|-------------------------------|
G|-------------------------------|-------------------------------|
Em Em A A
cry when she learns we are two

A|2---------------2--------------|0---------------0--------------|
E|----0-------0-------0-------0--|----0-------0-------0-------0--|
C|-------------------------------|-------------------------------|
G|--------4---------------4------|--------2---------------2------|
D D Gm Gm
If I fell in love with you

A|0---5-------5---0---5----------|-------------------------------|
E|--------2---------------5------|3---------------3--------------|
C|----------------------------2--|----2-------2-------2----------|
G|-------------------------------|--------0---------------0------|
D D Gm Gm

A|------------5------------------|--------5----------------------|
E|--------2-------2-------5------|6------------------------------|
C|2------------------------------|----------------2-------4------|
G|----2--------------------------|--------5-------7-------9------|

D D

A|6------------------------------|-------------------------------|
E|-------------------------------|-------------------------------|
C|6------------------------------|-------------------------------|
G|11-----------------------------|-------------------------------|

 

Tab comments (0)
No comment yet :(
Need help, a tip to share, or simply want to talk about this song? Start the discussion!

You must be logged in to join the discussion
or Register

 

About this song

If I Fell first appeared on the 1964 UK album A Hard Day's Night and the US compilation album Something New. It was written primarily by John Lennon, with help from Paul McCartney.StructureThe song is notable for its unusual structure, which includes an unrepeated introductory section (introduced as an afterthought as of take 11) followed by sequential verse sections, each having a slightly expanded form, but with no obvious chorus or bridge section. Read more on Last.fm.