Here Comes The Sun Uke tab by The Beatles

7 Chords used in the song: G, C, D, A7, Bb, F, D7

9.3/10
PrintAdd tab to your SongBook

Tablature / Chords (Full Song)

Font size: A- A A+

Artist: 
Album: 
Year:  1969
Difficulty: 
3.5
(Intermediate)
Key: unknownChords and Tablature
INTRO picking riff: 
G G C C D D
A--2–2---0-2-|-----2-0-------|-3-2-0-------|-0-------0-----|
E--3---3-----|-3-------3---3-|-0-----3---3-|-2-0-2-3---3---|
C--2---------|---2-------2---|-0-------0---|-2-----------2-|
G--0---------|---------------|-0-----------|-2-------------|

G G C C D D
A--2–2---0-2-|----2-0-------|-3-2-0-------|-0-------|
E--3---3-----|-3------3---3-|-0-----3---3-|-2-------|
C--2---------|---2------2---|-0-------0---|-2-------|
G--0---------|--------------|-0-----------|-2-------|


G G
Here comes the sun

A––2--–––––0-––2--|
E--––––3------––––|
C--------––––––––-|
G--------––––––––-|
do do do do

C C A7 A7 G G
Here comes the sun, And i say its alright

CHORUS picking riff:
A--------0-----0-|-----0-----0---------|
E------3-----3---|---3-----3---3-2-0---|
C--2-4-----2-----|-0-----2-----------2-|
G----------------|---------------------|


G G G G C C D D
Little darling, it's been a long, cold, lonely winter
G G G G C C D D
Little darling, it feels like years since it's been here


G G
Here comes the sun

A––2--–––––0-––2--|
E--––––3------––––|
C--------––––––––-|
G--------––––––––-|
do do do do

C C A7 A7 G G
Here comes the sun, And i say its alright

CHORUS picking riff + EXTRA 1:
A--------0-----0-|-----0-----0---------|
E------3-----3---|---3-----3---3-2-0---|
C--2-4-----2-----|-0-----2-----------2-|
G----------------|---------------------|

G G D D
A--2–2---0-2-----|-0-------0-----|
E--3---3-----3-0-|-2-0-2-3---3---|
C--2-------------|-2-----------2-|
G--0-------------|-2-------------|


G G G G C C D D
Little darling, the smiles returning to their faces
G G G G C C D D
Little darling, it seems like years since its been here


G G
Here comes the sun

A––2--–––––0-––2--|
E--––––3------––––|
C--------––––––––-|
G--------––––––––-|
do do do do

C C A7 A7 G G
Here comes the sun, And i say its alright

CHORUS picking riff + EXTRA 2:
A--------0-----0-|-----0-----0---------|
E------3-----3---|---3-----3---3-2-0---|
C--2-4-----2-----|-0-----2-----------2-|
G----------------|---------------------|

G G D D D D
A--2–2---0-2-----|-0-0-------0-|
E--3---3-----3-0-|-2-2-----2---|
C--2-------------|-2-2---2-----|
G--0-------------|-2-2---------|


BRIDGE picking riff:

Bb Bb F F C C G G (Strumming) D7 D7 (2 hits)
A--------|-------|-------3---| -----0-|
E------1-|-----1-|-----0---0-| ---2---|
C----2---|---0---|---0-------| -2-----|
G--3-----|-2-----|-0---------| -------|

Bb Bb F F C C G G (Strumming) D7 D7 (2 hits)
A--------|-------|-------3---| -----0-|
E------1-|-----1-|-----0---0-| ---2---|
C----2---|---0---|---0-------| -2-----|
G--3-----|-2-----|-0---------| -------|
Sun, Sun, Sun, here it comes

Bb Bb F F C C G G D7 D7
Sun, sun, sun, here it comes
-----0-|
---2---|
-2-----|
-------|

Bb Bb F F C C G G D D D D D7 D7 D7 D7
Sun, sun, sun, here it comes


G G G G C C D D
Little darling, I feel the ice is slowly melting
G G G G C C D D
Little darling, it feels like years since its been clear


G G
Here comes the sun

A––2--–––––0-––2--|
E--––––3------––––|
C--------––––––––-|
G--------––––––––-|
do do do do

C C A7 A7 G G
Here comes the sun, And i say its alright

CHORUS picking riff:
A--------0-----0-|-----0-----0---------|
E------3-----3---|---3-----3---3-2-0---|
C--2-4-----2-----|-0-----2-----------2-|
G----------------|---------------------|


G G
Its alright

D D D D
A--------0-----0-|-----0-----0-----0-0-|
E------3-----3---|---3-----3---3-2-2-2-|
C--2-4-----2-----|-0-----2---------2-2-|
G----------------|-----------------2-2-|

Bb Bb F F C C G G
A--1-----|-0-----|-3-----3---|
E--1---1-|-1---1-|-0---0---0-|
C--2-2---|-0-0---|-0-0-------|
G--3-----|-2-----|-0---------|

⇢ Not happy with this tab? View 26 other version(s)

Uke tab by , 12 May 2018

Tab comments (1)

Something to say?
Share your strumming patterns, chords or tips to play this tab! ;)
Filter by:
Frybabyy avatar
flag for US(ISO2) (Sierra Vista)
This is amazing! :)
16 May 2018
Comment

Top Tabs & Chords by The Beatles, don't miss these songs!

About this song: Here Comes The Sun

No information about this song.

Did you cover Here Comes The Sun on your Ukulele? Share your work!
Submit a cover