Helter Skelter Uke tab by The Beatles

Ukulele Tab without chords.

Add tab to your SongBook
Tablature / ChordsFont size: A- A A+

Don't know how to read a tab or a chord ? Check out these uke lessons:

Detailed guide to strumming and picking
How to read uke tabs
Reading chord diagrams

s                                      
A|------5-|-5-5-5-5-5-5-5-5-5-5-5-5-5-5-5-5-|
E|----0-0-|-0-0-0-0-0-0-0-0-0-0-0-0-0-0-0-0-|
C|--------|---------------------------------|
G|---4----|---------------------------------|

A|-5-5-5-5-5-5-5-5-5-5-5-5-5-5-5-|-4-4-4-4-4-4-4-4-4-4-4-4-4-4-4-4-4-4-4-4-4-4-|
E|-0-0-0-0-0-0-0-0-0-0-0-0-0-0-0-|-0-0-0-0-0-0-0-0-0-0-0-0-0-0-0-0-0-0-0-0-0-0-|
C|-------------------------------|---------------------------------------------|
G|-------------------------------|---------------------------------------------|

A|-3-3-3-3-3-3-3-3-3-3-3-3-3-3-3-3-3-3-3-3-3-3-3-2--|
E|-0-0-0-0-0-0-0-0-0-0-0-0-0-0-0-0-0-0-0-0-0-0-0-0--|
C|--------------------------------------------------|
G|--------------------------------------------------|
A|-2-2-4-4-0-5-4-2---------|-0-0-0-0-5-10-9-7-5-4-2-0-|
E|-0-0-0-0---------5-4-2-0-|--------------------------|
C|-------------------------|-4-4-6-6------------------|
G|-------------------------|--------------------------|

A|-0-0-0-0-------------2-0-|
E|-0-0-2-2---3-2-0---------|
C|---------2-------2-1-----|
G|-------------------------|
A|-2-2-4-4-0-5-4-2---------|-0-0-0-0-5-10-9-7-5-4-2-0-|
E|-0-0-0-0---------5-4-2-0-|--------------------------|
C|-------------------------|-4-4-6-6------------------|
G|-------------------------|--------------------------|

A|-0-0-0-0-------------2-0-|
E|-0-0-2-2---3-2-0---------|
C|---------2-------2-1-----|
G|-------------------------|
s
A|------5-|-5-5-5-5-5-5-5-5-5-5-5-5-5-5-5-5-5-5-5-5-|
E|----0-0-|-0-0-0-0-0-0-0-0-0-0-0-0-0-0-0-0-0-0-0-0-|
C|--------|-----------------------------------------|
G|---4----|-----------------------------------------|

A|-5-5-5-5-5-5-5-5-5-5-5-5-5-5-|-4-4-4-4-4-4-4-4-4-4-4-4-4-4-4-4-4-4-4-4-4-4-4-|
E|-0-0-0-0-0-0-0-0-0-0-0-0-0-0-|-0-0-0-0-0-0-0-0-0-0-0-0-0-0-0-0-0-0-0-0-0-0-0-|
C|-----------------------------|-----------------------------------------------|
G|-----------------------------|-----------------------------------------------|

A|-3-3-3-3-3-3-3-3-3-3-3-3-3-3-3-3-3-3-3-3-3-3-3-3-3-3-3-3-3-2--|
E|-0-0-0-0-0-0-0-0-0-0-0-0-0-0-0-0-0-0-0-0-0-0-0-0-0-0-0-0-0-0--|
C|--------------------------------------------------------------|
G|--------------------------------------------------------------|
A|-2-2-4-4-0-5-4-2---------|-0-0-0-0-5-10-9-7-5-4-2-0-|
E|-0-0-0-0---------5-4-2-0-|--------------------------|
C|-------------------------|-4-4-6-6------------------|
G|-------------------------|--------------------------|

A|-0-0-0-0-------------2-0-|
E|-0-0-2-2---3-2-0---------|
C|---------2-------2-1-----|
G|-------------------------|

 

Tab comments (0)
No comment yet :(
Need help, a tip to share, or simply want to talk about this song? Start the discussion!

You must be logged in to join the discussion
or Register

 

About this song

"I've got blisters on my fingers!" is shouted by Ringo Starr at the end of the song, after he threw his drum sticks down from the intensity and length of the recording session. Studio session recordings of the song were numerous and varied in style, and lasted up to 27 minutes at the longest. Helter Skelter is a song written by Paul McCartney and recorded by The Beatles on The White Album. It is considered one of the first Heavy Metal songs. Black Sabbath & Deep Purple both admit to being heavily inspired by this song.Read more on Last.fm.