Everybody Wants To Rule The World Uke tab by Tears For Fears

Ukulele Tab without chords.

1.6/10
PrintAdd tab to your SongBook

Tablature / Chords (Full Song)

Font size: A- A A+

Artist: 
Year:  1985
Key: unknownTablature (no chords)
H                     
A|------------44-----|-----------------------|
E|-22--------------|-------5-----------5---|
C|-----------------|--4-6-----6-----6------|
G|----16--11-----7---|-------------4---------|

A|--4----2--------------------|
E|-----------33-33-33-33-33---|
C|--2----2--------------------|
G|--2----0--------------------|

A|--4----2------------------|
E|--------------------------|
C|--2----2---22---22---22---|
G|--2----0------------------|

A|------------------------------44----|
E|-------------------22-------------|
C|----------------------------------|
G|----------------------16--11-----7--|

A|------------------|----------------|
E|------2-2-2-------|----5-5--5------|
C|------2-2-2-2-----|----2-2--4------|
G|------------4-----|----------------|

A|---------------|----------------|
E|----2-2-2------|-5-5------5-5---|
C|----2-2-2-2----|-2-2-4----2-2-4-|
G|----------4----|-----4--------4-|

A|------------------|------------------|
E|-2-2-2-----5-5----|-2-2-2-----5-5----|
C|-2-2-2-2---2-2-4--|-2-2-2-2---2-2-4--|
G|-------4-------4--|-------4-------4--|
S
A|----------------------|-----------------------|
E|------5-----------5---|-----------5--2-3-5----|
C|-2-6-----6-----6------|---------------------2-|
G|------------4---------|-4-7--6-7--------------|
s
A|------------------|----------------------------------------------|
E|---5--------------|-2-2-2-2----------5-----2-2-2-2-------------5-|
C|-2-2-(X-- -ime-)--|-2-2-2-2-2---2-2--2-----2-2-2-2-2---2-2---2-2-|
G|-4-----6--5-------|---------4---4-4----------------4---4-4---4---|
S S S H H
A|-7---7---7---9-9-9-7--7--7-9-9-7-9-7-7-7-9-7-7-7-9-|
E|----------------5--5--5-----5-------5-------5---|
C|------------------------------------------------|
G|-7--7--7--4-4-4---------4-4---4-4-6---4-4-6---4-|

A|--------------------------------------------------|
E|-2-2-2------2-2-2------2-2------2-2------2-2---2--|
C|-2-2-2-2----2-2-2-2----2-2-2----2-2-2----2-2-2-2--|
G|-------4----------4--------4--------4--------4----|

A|--------------|-------------------|
E|---2-2-2----- |-5-5-----5-5-------|
C|---2-2-2-2----|-2-2-2---2-2--2----|
G|---------4----|-----4--------4----|

A|----------------|----------------|
E|----2-2-2-------|-5-5------5-5---|
C|----2-2-2-2-----|-2-2-4----2-2-4-|
G|----------4-----|-----4--------4-|

A|-------------------------------------|
E|-2-2-2-----5-5-----2-2-2-----2-3-5---|
C|-2-2-2-2---2-2-4---2-2-2-2---2-2--4--|
G|-------4-------4---------4-----------|
S
A|-----------------------|
E|-5---------------------|
C|-----------------------|
G|----4--7--4--9--4--7---|

A|------------------------------------|
E|-2-2------2-2------2-2------2-2-----|
C|-2-2--2---2-2--2---2-2--2---2-2--2--|
G|------4--------4--------4--------4--|

A|-----------------------------------------------|
E|-2-2-----5-5-----5-5-----2-2-----5-5-----5-5---|
C|-2-2-2---2-2-2---2-2-2---2-2-2---2-2-2---2-2-2-|
G|-----4-------4-------4-------4-------4-------4-|

A|------------------------------------|
E|-2-2------2-2------2-2------2-2-----|
C|-2-2--2---2-2--2---2-2--2---2-2--2--|
G|------4--------4--------4--------4--|
~~~ S
A|------------------------------|
E|-------5----------------------|
C|----------6--2-6---------6----|
G|-7--4-------------------------|
H H P P H ~~~
A|-----------------|-------------------------|
E|---5-------5---5-|--------5----------------|
C|-------2---------|----------2-4-4--6-------|
G|-4---4---4---4---|-4-5--4------ -b(--)-----|
S H H
A|--------------------------|
E|----3-5-3-5--5------------|
C|--2-----------------------|
G|----------------7--7--9---|

A|---------------------------------|
E|-------5-----------3-2-5---------|
C|-2-3-2---4-5--4------------------|
G|--b-r-----b--r---4---------6-7---|
~~~ ~~~
A|-----------------------|
E|-2--------5--5---5-----|
C|------2-------4--------|
G|--------4--------------|
S
A|---------------------------|
E|-5-------5---5--------2----|
C|-2-4-----2-4-2------4---2--|
G|---4-------4---------------|

⇢ Not happy with this tab? View 3 other version(s)

Uke tab by , 23 Jul 2012

Tab comments (0)

No comment yet :(
Need help, a tip to share, or simply want to talk about this song? Start the discussion!

Something to say?
Share your strumming patterns, chords or tips to play this tab! ;)

Top Tabs & Chords by Tears For Fears, don't miss these songs!

About this song: Everybody Wants To Rule The World

No information about this song.

Did you cover Everybody Wants To Rule The World on your Ukulele? Share your work!
Submit a cover