Safe And Sound Uke tab by Taylor Swift

6 Chords used in the song: Am,Em,G,C,D,A

Add tab to your SongBook
Tablature / ChordsFont size: A- A A+

Don't know how to read a tab or a chord ? Check out these uke lessons:

Detailed guide to strumming and picking
How to read uke tabs
Reading chord diagrams

Intro:

A|--0------3/2-----------2-------------|
E|-----0------------0------------------|
C|-------------------------------------|
G|--------------0----------------------|



A|--1/3--3--0--3-----------------------|
E|----------------------2--------------|
C|-------------------------------------|
G|---0---0--0--0----0------------------|



A|--0-----3/2----------2---------------|
E|-----0-----------0-------------------|
C|-------------------------------------|
G|--------------0----------------------|



A|-------------------------|
E|---0---------------------|
C|-------------------------|
G|--------0----0-----------|


Am Am Em Em
I xxxxxxxx xxxxx xxxxxxxxx down xxxx xxxx
C C G G
xxxx x xxxx, I'll xxxxx xxx you xx
Am Am Em Em C C G G
xxxx all xxxxx xxxxxxx almost xxxxxx xxxx xxxxx
Am Am Em Em C C G G
I xxxxxxxx xxx xxxx, xxxxx leave xx xxxx xxxxx
Am Am Em Em C C Em Em
xxx all xxxxxx xxxx and gone xxx passed xxxxxxx

C C Em Em G G
Just xxxxx your xxxx
D D C C
xxx sun xx going xxxx
Em Em G G
xxxxxx be xxxxxxx
D D C C
xx one xxx xxxx you xxx
Em Em G G
xxxx xxxxxxx light
D D Em Em D D C C
You xxx I'll xx xxxx and xxxxx


Am Am Em Em C C
Don't xxx xxxx xxxx xxx your xxxxxx xxxxxxx
G G
xxxxxxxxxxxx xx xxxx
Am Am Em Em C C G G
xxx war xxxxxxx our xxxx xxxxx xxxxxx xx
A A Em Em C C G G
Hold xx to xxxx lullaby
Am Am Em Em G G Em Em
Even xxxx the xxxxxxx gone

C C Em Em G G
Just xxxxx your xxxx
D D C C
xxx sun xx xxxxx down
Em Em G G
xxxxxx be xxxxxxx
D D C C
xx one xxx xxxx you xxx
Em Em G G
xxxx xxxxxxx light
D D Em Em D D C C
You xxx I'll xx xxxx and xxxxx

(x7)

C C Em Em G G D D
Just xxxxx your xxxx
C C Em Em G G D D
You'll xx alright
C C Em Em G G
Come xxxxxxx light
D D Em Em D D C C
You xxx xxxx xx xxxx and xxxxx

 

Tab comments (0)
No comment yet :(
Need help, a tip to share, or simply want to talk about this song? Start the discussion!

You must be logged in to join the discussion
or Register

 

About this song

No information about this song.