Mean (Solo) Uke tab by Taylor Swift

Ukulele Tab without chords.

Add tab to your SongBook
Tablature / ChordsFont size: A- A A+

Don't know how to read a tab or a chord ? Check out these uke lessons:

Detailed guide to strumming and picking
How to read uke tabs
Reading chord diagrams

A|--------------------------------------------------------------------|
E|---------------------------5---5---5----------------4----4-------|
C|-4----4-------4--------------------------------------------4-----|
G|---9----9--9----9--8--6------14---13---11---9--8--6-4----4----------|

A|-------------------------------------------------------------------|
E|---4-4-4--4-4-4--4-4-4-------------------------------------------|
C|-4-4-4-4--4-4-4--4-4-4-------------------------------------------|
G|------------------------9--13--11--9--8--4-------------------------|

 

Tab comments (0)
No comment yet :(
Need help, a tip to share, or simply want to talk about this song? Start the discussion!

You must be logged in to join the discussion
or Register

 

About this song

"Mean" is a song by American country pop singer-songwriter Taylor Swift, taken from her third studio album, Speak Now (2010). The song, written by Swift and produced by Nathan Chapman and Swift, was first released as a promotional single for the album on October 17, 2010, by Big Machine Records. The song was later released as an official single on March 7, 2011.This song is rumored to be directed at blogger Bob Lefsetz, although nothing was officially confirmed. Read more on Last.fm.