White Horse Uke tab by Taylor Swift

Ukulele Tab without chords.

Add tab to your SongBook
Tablature / ChordsFont size: A- A A+

Don't know how to read a tab or a chord ? Check out these uke lessons:

Detailed guide to strumming and picking
How to read uke tabs
Reading chord diagrams

|----------3----3-3----3----0-0----3----3-3----3----|
|--------3------1-1--3---0-------3---0--1-1--3------|
|--0-0-------2-----------------------------------2--|
|---------------------------5-5---------------------|

|----------3----3-3----3----0-0----3----3-3----3----|
|--------3------1-1--3---0-------3---0--1-1--3------|
|--0-0-------2-----------------------------------2--|
|---------------------------5-5---------------------|

|----------3----3-3----3----0-0----3----3-3----3----|
|--------3------1-1--3---0-------3---0--1-1--3------|
|--0-0-------2-----------------------------------2--|
|---------------------------5-5---------------------|
S S
|--0-0----3----3-3----3------3-4---3-4---3--2--|
|-------3---0--1-1--3-----------------------3--|
|-----------------------2-------------------2--|
|--5-5---------------------0-----0-----0----0--|

|--3--------------------0------------------------0----------------|
|--0--------------------0------------------------1----------------|
|--4--------------------4------------------------x----------------|
|--0--------------------2------------------------2----------------|

|--2---------------------------3---------------------0------------|
|--3---------------------------0---------------------0------------|
|--2---------------------------4---------------------4------------|
|--0---------------------------0---------------------2------------|

|--0----------------------------------2--------------|
|--1----------------------------------3--------------|
|--x----------------------------------2--------------|
|--2----------------------------------0--------------|

|---------3------------3----|
|-------3------------3------|
|--0-0----------0-0---------|
|-----------0------------0--|

|--3-------------0--------------------------0------------------------0--|
|--0-------------1--------------------------0------------------------1--|
|--4-------------x--------------------------4------------------------x--|
|--0-------------2--------------------------2------------------------2--|

|--3------------------0----------------------------0---------------------------0--|
|--0------------------1----------------------------0---------------------------1--|
|--4------------------x----------------------------4---------------------------x--|
|--0------------------2----------------------------2---------------------------2--|

|--0-----------------------0----------------2------------|
|--0-----------------------1----------------3------------|
|--4-----------------------x----------------2------------|
|--2-----------------------2----------------0------------|

|--3--------------------0------------------------0----------------|
|--0--------------------0------------------------1----------------|
|--4--------------------4------------------------x----------------|
|--0--------------------2------------------------2----------------|

|--2---------------------------3---------------------0------------|
|--3---------------------------0---------------------0------------|
|--2---------------------------4---------------------4------------|
|--0---------------------------0---------------------2------------|

|--0----------------------------------2--------------|
|--1----------------------------------3--------------|
|--x----------------------------------2--------------|
|--2----------------------------------0--------------|

|----0-------------2------------0--------------|
|----0-------------3------------1--------------|
|----4-------------2------------x--------------|
|----2-------------0------------2--------------|

|--3------0------0------2--|
|--0------0------1------3--|
|--4------4------x------2--|
|--0------2------2------0--|

|--0----0---------2------2-----0----3-------3-------2------2--0------|
|--0----0---------3------3-----1----0-------0-------3------3--1------|
|--4----4---------2------2-----x----4-------4-------2------2--x------|
|--2----2---------0------0-----2----0-------0-------0------0--2------|

|--0------------2-------------0------------1------|
|--0------------3-------------1------------1------|
|--4------------2-------------x------------x------|
|--2------------0-------------2------------3------|

|----------0-------------------2----------|
|----------1-------------------3----------|
|----------x-------------------2----------|
|----------2-------------------0----------|

|----0-------------2------------0--------------|
|----0-------------3------------1--------------|
|----4-------------2------------x--------------|
|----2-------------0------------2--------------|

|----0-------------2------------0--------------|
|----0-------------3------------1--------------|
|----4-------------2------------x--------------|
|----2-------------0------------2--------------|

|-3-----0---0-------------0---------------3--|
|-0-----1---0-------------1---------------0--|
|-4-----x---4-------------x---------------4--|
|-0-----2---2-------------2---------------0--|

 

Tab comments (0)
No comment yet :(
Need help, a tip to share, or simply want to talk about this song? Start the discussion!

You must be logged in to join the discussion
or Register

 

About this song

Taylor swift sings that her story is no longer a love story. She discovers that her romance is no longer a fairy tale and sings about it in a sad mood.