Fields Of Gold Uke tab by Sting

Ukulele Tab without chords.

8.5/10
PrintAdd tab to your SongBook

Tablature / Chords (Full Song)

Font size: A- A A+

Artist: 
Year:  1993
Difficulty: 
8
(Confirmed)
Key: C, D, G, Cm, Am, Em, Tablature (no chords)
High G G 
A|---3-2 -0- - 3 -2-0------0-------------3-2-0-----3-2-0---------------------------
E|--------------------------------0----------------------------0-1-0-0------------
C|-----------------------------------------------------------2----------2-0---------
G|-------- 0 -0-----0-0--0--0-0-0---0---------0-0-------0-0-----------------------

A|------5-7-8-7-7-5-3------3---------3----3---|
E|----------------------------------0-----0---|
C|--------------------------0-----0------0----|
G|------------------------------0--------0-----|

⇢ Not happy with this tab? View 3 other version(s)

Uke tab by , 26 Jul 2012

Tab comments (0)

No comment yet :(
Need help, a tip to share, or simply want to talk about this song? Start the discussion!

Something to say?
Share your strumming patterns, chords or tips to play this tab! ;)

Top Tabs & Chords by Sting, don't miss these songs!

About this song: Fields Of Gold

No information about this song.

Did you cover Fields Of Gold on your Ukulele? Share your work!
Submit a cover