Turning Page Uke tab by Sleeping At Last

Ukulele Tab without chords.

7.5/10
PrintAdd tab to your SongBook

Tablature / Chords (Full Song)

Font size: A- A A+

Year:  2011
Key: unknownTablature (no chords)
A|------3-2---------3-2--------------5-------------3-2------------|
E|---0------0----0------0------1--0---------1--0--3---------------|
C|---0-----------0-------------0------------0---------------------|
G|---0-----------0-------------2------------2----------0----------|

A|------3-2---------3-2---------------5-------------5---2-3-------|
E|---0------0----0------0------1---0--------1---0-3---0-----------|
C|---0-----------0-------------0------------0---------------------
| G|---0-----------0-------------2-2----------2-2-------------------|

A|------3-2---------3-2---------------5-------------5---2-3-------|
E|---0------0----0------0------1---0--------1---0-3---0-----------|
C|---0-----------0-------------0------------0---------------------
| G|---0-----------0-------------2-2----------2-2-------------------|

A|------3-2---------3-2---------------5--------------3-2----------|
E|---0------0----0------0------1---0--------1---0---3-------------|
C|---0-----------0-------------0------------0---------------------|
G|---0-----------0-------------2-2--2-------2-2---------0---------|

A|--5--5-----0--3--------3-------3-----|
E|--3--3-----0--3-----1--0-----0-3-----|
C|--------------------0--------0-------|
G|-----------2--------2--------0-------|

A|--5--5---5--5----0--3-------------|
E|--3--3---3--3----0--0-----1-------|
C|--------------------------0-------|
G|-----------------2--------2-------|

A|----3--3----2-32-3----0--0--3------5--5--------------------3----|
E|--0--0---------------------------3--3-------1-01-01-01-0--------|
C|----------------------------------------------------------------|
G|---0--0-0----0--0-0-----25-2-2----0--0-0-----2--2--2--2---2-----|

A|----5--5-----0-30-3-------3--3-------3--3------|
E|--3--3-----------------------------------------|
C|------------------------0--0-------0--0--------|
G|---0--0-0-----2--2-2-----2--2-2-----0--0-0-----|

A|-----5--5------5--5-----0--0--3-------3--3------3-3-------|
E|--3--3------3--3--------------------1--1--1-0-1-----------|
C|----------------------------------------------------------|
G|----0--0-0----0--0-0------25-2-2-----2--2--2-----2--------|

A|---3-2-----------|
E|--------------0--|
C|-----------------|
G|-------2--0-2----|

⇢ Not happy with this tab? View 1 other version(s)

Uke tab by , 18 Feb 2015

Tab comments (1)

Something to say?
Share your strumming patterns, chords or tips to play this tab! ;)
Filter by:
Allenjoey24 avatar
A|---3--3-2-----3--3-2--------------7-5--------7-10-5-3-2-----------|
E|---0------0-—0------0-----1 - ----------1-- - - - ----------3-----|
C|---0-----------0-------------0----------—0------------------———--|
G|---0-----------0-------------2----------—2------------——-------|
C CF F. Repeat


This is how I have been playing the intro.... it could use some work
22 Mar 2019
Correction

Top Tabs & Chords by Sleeping At Last, don't miss these songs!

About this song: Turning Page

No information about this song.

Did you cover Turning Page on your Ukulele? Share your work!
Submit a cover