Whistle Stop Uke tab by Roger Miller

Ukulele Tab without chords.

9.5/10
PrintAdd tab to your SongBook

Tablature / Chords (

Font size: A- A A+

Artist: 
Album: 
Year:  2013
Key: unknownTablature (no chords)
[Lead:]

A|----------------------------------------|
E|---------------------------------5------|
C|-------------2h4-2----------6/7---------|
G|--4-3-4-0-0--------4-3-4-0--------------|

A|---------------5p3----------------------|
E|------------------------2/3-------------|
C|----------------------2-----------------|
G|--4-3-4-0-0-0------0-------2/4-0--------|

[Background:]

A|----2----2----2----2----2----2----2----2----2----2-----|
E|--3---------3---------3---------3---------3------------|
C|------2----------2---------2---------2---------2-------|
G|----0----0----0----0----0----0----0----0----0----0-----|

A|----5----5----2----2----3----3----2----2----2----------|
E|--2---------3---------0---------3-----------3----------|
C|------2---------2----------0---------2------2----------|
G|----2----2----0----0----0----0----0----0----0----------|

⇢ Not happy with this tab? View 1 other version(s)

Uke tab by , 31 Oct 2013

Tab comments (1)

Something to say?
Share your strumming patterns, chords or tips to play this tab! ;)
Filter by:
samuelg2 avatar
flag for US(ISO2) (Farminton)
Very nice. Uke Hunt has a version where he mixed your two sections together into a solo version that sounds really good too.
30 May 2015
Comment

Top Tabs & Chords by Roger Miller, don't miss these songs!

About this song: Whistle Stop

No information about this song.

Did you cover Whistle Stop on your Ukulele? Share your work!
Submit a cover