Corduroy Dreams Uke tab by Rex Orange County

Ukulele Tab without chords.

Add tab to your SongBook
Tablature / ChordsFont size: A- A A+

Don't know how to read a tab or a chord ? Check out these uke lessons:

Detailed guide to strumming and picking
How to read uke tabs
Reading chord diagrams

A|----------------|----------------|
E|----------------|----------------|
C|-4--------------|----------------|
G|----------------|----------------|
S
A|------4----x-----|-0-----4----x----|------4-----x--|-0-------------|
E|----------x-----|-----------x----|-----------x--|-------5------|
C|---4--3---x-----|---5---2---x----|-5-6--3----x--|-------3------| G|------4---x-----|-------4---x----|------4----x--|----4---------|
S
A|------4----x-----|-0-----4----x----|------4-----x--|--------------|
E|----------x-----|-----------x----|-----------x--|-----53-------|
C|---4--3---x-----|---5---2---x----|-5-6--3----x--|------3-------| G|------4---x-----|-------4---x----|------4----x--|----4---------|
S
A|------4----x-----|-0-----4----x----|------4-----x--|-0-------------|
E|----------x-----|-----------x----|-----------x--|-------5------|
C|---4--3---x-----|---5---2---x----|-5-6--3----x--|-------3------| G|------4---x-----|-------4---x----|------4----x--|----4-------4-|
S
A|------4----x-----|-0-----4----x----|-----------x--|--------------|
E|----------x-----|-----------x----|----5---5--x--|-----5-3------|
C|---4--3---x-----|---5---2---x----|-5-63------x--|------3-------| G|------4---x-----|-------4---x----|---4-------x--|----4---------|

A|----------------|----------------|--------------|---------------|
E|---7------7-----|---7-------7----|---7-----7----|-------5------|
C|---4------4-----|---5-------5----|---6-----6----|-------3------| G|---8------8-----|---7-------7----|---8-----8----|----4-------4-|
S
A|------4----x-----|-0-----4----x----|------4-----x--|-0-------------|
E|----------x-----|-----------x----|-----------x--|-----5--------|
C|---4--3---x-----|---5---2---x----|-5-6--3----x--|-----3--------| G|------4---x-----|-------4---x----|------4----x--|----4---------|
S
A|------4----x-----|-0-----4----x----|------4-----x--|-0-------------|
E|----------x-----|-----------x----|-----------x--|-------5------|
C|---4--3---x-----|---5---2---x----|-5-6--3----x--|-------3------| G|------4---x-----|-------4---x----|------4----x--|----4---------|
S
A|------4----x-----|-0-----4----x----|-----------x--|-----------x--|
E|----------x-----|-----------x----|----5---5--x--|-----5-3---x--|
C|---4--3---x-----|---5---2---x----|-5-63------x--|------3----x--| G|------4---x-----|-------4---x----|---4-------x--|----4------x--|

A|----------------|----------------|---------------|--------------|
E|---7------------|----------------|---------------|--7-----6-----|
C|---4------------|----------------|---------------|--4-----3-----|
G|---8------------|----------------|---------------|--8-----7-----|

A|------9----x----|------------9---|---------------|--------------|
E|------5----x----|------------5---|------5--2-----|--------------|
C|---2-------x----|---2------------|---2-----------|--------------|
G|------6----x----|------------6---|---------6-----|--------------|
S
A|-------7----x---|------7----x----|---6-7-----x---|---------7--x-|
E|---5---4----x---|-5----4----x----|---3-4-----x---|---5-----4--x-|
C|------------x---|-----------x----|---8-9-----x---|------------x-|
G|-------6----x---|------6----x----|---5-6-----x---|---------6--x-|

A|-----------x----|--------7---x---|---------7--x--|--------------|
E|---3-------x----|--------3---x---|-----3------x--|--3---4---5---|
C|---0-------x----|---0--------x---|---0--------x--|--0---1---2---|
G|---4-------x----|--------4---x---|-------4----x--|--4---5---6---|

A|-----------x----|----------------|---x-----------|--------------|
E|---7-------x----|---7-----7------|---x-----------|--7-----6-----|
C|---4-------x----|---4-----4------|---x-----------|--4-----3-----|
G|---8-------x----|---8-----8------|---x-----------|--8-----7-----|

A|-----------x----|---------9---x--|---------------|--------------|
E|---5-------x----|---------5---x--|----5-2--------|--------------|
C|---2-------x----|---2---------x--|---2-----------|--------------|
G|---6-------x----|---------6---x--|-----6---------|--------------|

A|----------------|----------------|---------------|--------------|
E|---7------------|---4-----6------|---5-----------|--------------|
C|---4------------|---------3------|---2-----------|--------------|
G|---8------------|---------7------|---6-----------|--------------|
S
A|----------------|----------------|----------x----|--8-------x----|
E|--------------5-|----------------|-3-4------x----|--5------x----|
C|----------------|-------3--------|----------x----|--11------x----|
G|---4------------|----------------|----------x----|--8------x----|
S
A|------4----x-----|-0-----4----x----|------4-----x--|-0-------------|
E|----------x-----|-----------x----|-----------x--|-------5------|
C|---4--3---x-----|---5---2---x----|-5-6--3----x--|-------3------| G|------4---x-----|-------4---x----|------4----x--|----4---------|
S
A|------4----x-----|-0-----4----x----|------4-----x--|--------------|
E|----------x-----|-----------x----|-----------x--|-----53-------|
C|---4--3---x-----|---5---2---x----|-5-6--3----x--|------3-------| G|------4---x-----|-------4---x----|------4----x--|----4---------|
S
A|------4----x-----|-0-----4----x----|------4-----x--|-0-------------|
E|----------x-----|-----------x----|-----------x--|-------5------|
C|---4--3---x-----|---5---2---x----|-5-6--3----x--|-------3------| G|------4---x-----|-------4---x----|------4----x--|----4-------4-|
S
A|------4----x-----|-0-----4----x----|-----------x--|-----------x--|
E|----------x-----|-----------x----|----5---5--x--|-----5-3---x--|
C|---4--3---x-----|---5---2---x----|-5-63------x--|------3----x--| G|------4---x-----|-------4---x----|---4-------x--|----4------x--|

A|----------------|----------------|--------------|---------------|
E|---7------7-----|---7-------7----|---7-----7----|-------5------|
C|---4------4-----|---5-------5----|---6-----6----|-------3------| G|---8------8-----|---7-------7----|---8-----8----|----4-------4-|
S
A|------4----x-----|-0-----4----x----|------4-----x--|-0-------------|
E|----------x-----|-----------x----|-----------x--|-----5--------|
C|---4--3---x-----|---5---2---x----|-5-6--3----x--|-----3--------| G|------4---x-----|-------4---x----|------4----x--|----4---------|
S
A|------4----x-----|-0-----4----x----|------4-----x--|-0-------------|
E|----------x-----|-----------x----|-----------x--|-------5------|
C|---4--3---x-----|---5---2---x----|-5-6--3----x--|-------3------| G|------4---x-----|-------4---x----|------4----x--|----4---------|
S
A|------4----x-----|-0-----4----x----|-----------x--|-----------x--|
E|----------x-----|-----------x----|----5---5--x--|-----5-3---x--|
C|---4--3---x-----|---5---2---x----|-5-63------x--|------3----x--| G|------4---x-----|-------4---x----|---4-------x--|----4------x--|

A|----------------|----------------|---------------|--------------|
E|---7------------|----------------|---------------|--7-----6-----|
C|---4------------|----------------|---------------|--4-----3-----|
G|---8------------|----------------|---------------|--8-----7-----|

A|------9----x----|------------9---|---------------|--------------|
E|------5----x----|------------5---|------5--2-----|--------------|
C|---2-------x----|---2------------|---2-----------|--------------|
G|------6----x----|------------6---|---------6-----|--------------|
S
A|-------7----x---|------7----x----|---6-7-----x---|---------7--x-|
E|---5---4----x---|-5----4----x----|---3-4-----x---|---5-----4--x-|
C|------------x---|-----------x----|---8-9-----x---|------------x-|
G|-------6----x---|------6----x----|---5-6-----x---|---------6--x-|

A|-----------x----|--------7---x---|---------7--x--|--------------|
E|---3-------x----|--------3---x---|-----3------x--|--3---4---5---|
C|---0-------x----|---0--------x---|---0--------x--|--0---1---2---|
G|---4-------x----|--------4---x---|-------4----x--|--4---5---6---|

A|-----------x----|----------------|---x-----------|--------------|
E|---7-------x----|---7-----7------|---x-----------|--7-----6-----|
C|---4-------x----|---4-----4------|---x-----------|--4-----3-----|
G|---8-------x----|---8-----8------|---x-----------|--8-----7-----|

A|-----------x----|---------9---x--|---------------|--------------|
E|---5-------x----|---------5---x--|----5-2--------|--------------|
C|---2-------x----|---2---------x--|---2-----------|--------------|
G|---6-------x----|---------6---x--|-----6---------|--------------|

A|----------------|----------------|---------------|--------------|
E|---7------------|---7-----6------|---5-----------|--------------|
C|---4------------|---4-----3------|---2-----------|--------------| G|---8------------|---8-----7------|---6-----------|--------------|
S
A|----------------|----------------|---8------------|--8------------|
E|----------------|----------------|---5-----------|--5-----------|
C|---6------------|----------------|---11-----------|--11-----------|
G|-----4----------|----------------|---8-----------|--8-----------|
A|------------6---|
E|--7----9--------|
D|----------------|
G|----------------|

 

Tab comments (3)
You must be logged in to join the discussion
or Register

 

rvchel avatar
when there is an x im pretty sure you mute the strings
10 Mar 2018
indiaap avatar
flag for AU(ISO2) (perth)
strumming pattern?
07 Mar 2018
nolakemper avatar
Hey, what string do you play when there is an 'x' on the tab? i'm a beginning ukelele player :)
22 Feb 2018
About this song

No information about this song.