My Iron Lung (Intro) Uke tab by Radiohead

Ukulele Tab without chords.

Add tab to your SongBook
Tablature / ChordsFont size: A- A A+

Don't know how to read a tab or a chord ? Check out these uke lessons:

Detailed guide to strumming and picking
How to read uke tabs
Reading chord diagrams

A|-----5-2------2--------3-------------|
E|----------1----------3---------------|
C|-------------------3-----3-----------|
G|-0-0--------0---0----------2h3-2-0---|

A|-----5-2------2-------0-3-0---3-6-3--|
E|----------1-----------------2--------|
C|-------------------3-----------------|
G|-0-0--------0---0--------------------|


A|-----5-2------2---------3-5-5h6-5-3--|
E|----------1-----------3--------------|
C|--------------------3----------------|
G|-0-0--------0---0--------------------|

# And repeat!

 

Tab comments (0)
No comment yet :(
Need help, a tip to share, or simply want to talk about this song? Start the discussion!

You must be logged in to join the discussion
or Register

 

About this song

My Iron Lung is a 1994 EP, including the song of the same name, by the alternative rock band Radiohead. The title track more famously appeared later on the band's 1995 album, The Bends. The EP also contains outtakes from then-ongoing recording sessions for The Bends, compiling songs that were issued as B-sides on two separate "My Iron Lung" CD singles in the UK and other markets. My Iron Lung was originally released in EP form with all eight songs only in Australia, but it is currently in print worldwide. Read more on Last.fm.