High And Dry Uke tab by Radiohead

Ukulele Tab without chords.

Add tab to your SongBook
Tablature / ChordsFont size: A- A A+

Don't know how to read a tab or a chord ? Check out these uke lessons:

Detailed guide to strumming and picking
How to read uke tabs
Reading chord diagrams

# INTRO:

A--2-2-2-2--2-2-2-2--2-2-2-2--2-2-2-2--2-2-2-2
E--4-4-4-4--2-2-2-2--4-4-4-4--0-0-0-0--4-4-4-4
C--1-1-1-1--6-6-6-6--1-1-1-1--4-4-4-4--4-4-4-4
G--1-1-1-1--4-4-4-4--1-1-1-1--2-2-2-2--4-4-4-4
# This has a strange strumming pattern so listen to the song.

# VERSE+CHORUS:

A--7-7-7-7--2-2-2-2--2-2-2-2--2-2-2-2
E--x-x-x-x--0-0-0-0--4-4-4-4--4-4-4-4
C--6-6-6-6--4-4-4-4--4-4-4-4--4-4-4-4
G--x-x-x-x--2-2-2-2--4-4-4-4--4-4-4-4

SOLO:
A--7-7-6-7-7-6-7-7-6-7-9-7-6-7-7-6-7-6-4-2- -4-6-- -
E--0-0-0-0-0-0-0-0-0-0-0-0-0-0-0-0-0-0-0-0- -0-0--*-
C------------------------------------------ ------*-
G------------------------------------------ ------ -

 

Tab comments (1)
You must be logged in to join the discussion
or Register

 

RookieUkePlayer avatar
Please rate and comment
05 Oct 2011
About this song

"High and Dry" is a song by the English alternative rock band Radiohead, and was the first single released from their second album, The Bends (1995). It was as a double A-side with album opener "Planet Telex". "High and Dry" was released in the UK on 5 March 1995 and remains one of the band's most popular radio hits, despite reaching only #17 upon release. "High and Dry" was recorded during the Pablo Honey sessions but was dismissed by the band, who thought that it sounded like a Rod Stewart song.