Hentai Uke tab by Pink Guy

4 Chords used in the song: C, Am, F, G

Add tab to your SongBook
Tablature / ChordsFont size: A- A A+

Don't know how to read a tab or a chord ? Check out these uke lessons:

Detailed guide to strumming and picking
How to read uke tabs
Reading chord diagrams

[Intro]
A|-1-1-1-----1-4---1---4-4-4--3-3-3--1-1-1-1-1--4--|
E|-------4-4-----4---------------------------------|
C|-------------------------------------------------|
G|-------------------------------------------------|

[Verse]
A|-----------------0-----0-0-0------------------0--|
E|-2-2-2--0-0-0--2---0-2-------4-4-4--2-2-2-2-2----|
C|-------------------------------------------------|
G|-------------------------------------------------|

C C Am Am
I need you hentai
F F G G C C Am Am
you've always been in my life for me
F F G G
for me, for me
C C Am Am F F
Without this hentai I would die
G G C C
in this lonely painful life
Am Am F F G G
this lonely painful life, life
C C Am Am F F
It makes me happy, makes me cry
G G
makes me laugh, makes me nut

 

Tab comments (0)
No comment yet :(
Need help, a tip to share, or simply want to talk about this song? Start the discussion!

You must be logged in to join the discussion
or Register

 

About this song

No information about this song.