Harness Your Hopes Uke tab by Pavement

7 Chords used in the song: Dm, Am, E, A, F#m, B, D

9.3/10
PrintAdd tab to your SongBook

Tablature / Chords (Full Song)

Font size: A- A A+

Artist: 
Album:  unknown
Difficulty: 
4.64
(Intermediate)
Key: unknownChords and Tablature
INTRO 
Dm Dm Am Am E E Dm Dm Am Am E E Am Am Dm Dm Am Am E E

A A (x2)

F#m F#m A A
Harness your hopes on just one person
F#m F#m A A
Because you know a harness was only made for one
F#m F#m A A
Don't telegraph your passes, you'll end up with molasses
F#m F#m A A
Cauterized with syrup and syrup and molasses


A A B B D D
And I'm checking out the asses, the assets that attract us
F#m F#m A A
To anything that moves.. we're deep inside the grooves
A A B B D D
And it's time to shake the rations, 'cause someone's gonna cash in
F#m F#m A A
The plot it turns again.. the reference starts at ten


F#m F#m A A
Show me a word that rhymes with pavement
F#m F#m A A
And I won't kill your parents and roast them on a spit
F#m F#m A A
And a - don't you try to etch it or permanently sketch it
F#m F#m A A
Or you're gonna catch a bad bad cold


A A B B D D
And the freaks have stormed the white house, I moved into a lighthouse
F#m F#m A A
It's on a scenic quay, is oh so far away
A A B B D D
Far away from the beginning, the shroud is made of Lenin
F#m F#m A A
The yearling took the purse, the goth kid has a hearse


E E E E E E
Heart breaking, earth quaking, kiwis they are home baking
D D A A B B E E D D A A
Minds.. wide.. o-pen.. true-ly


F#m F#m A A
Leisure.. a leisure suit is nothing
A A F#m F#m A A
It's nothing to be proud of.. in this late century
A A F#m F#m A A
And I'm asking you to hold me just like the morning paper
A A F#m F#m A A
Pinched between your pointer, your index and your thumb


A A B B D D
It's a semi automatic.. believers are ecstatic
F#m F#m A A
You see the way they cling.. the cold metallic sting
A A B B D D
And I'm living in a coma.. for Donna DeVorona
F#m F#m A A
The harness made of hopes.. the lovers on the ropes


E E E E E E E E
Nun is to church as the parrot is to perch
D D A A B B E E D D A A
And my heart's wide o-pen true-ly


SOLO (over A A and F#m F#m)
A ---------0-4--4-4-4-4-2-0----------0-7---7-7-7-7-7--2-0------|
E --2----2------------------2------2-----------------------2---|
C -------------------------------------------------------------|
G -------------------------------------------------------------|

A ---------0-4--4-4-4-4-2-0----------0-7---7-7-7-7-7--2-0------|
E --2----2------------------2------2---------------------------|
C -------------------------------------------------------------|
G -------------------------------------------------------------|

A -------------------------------------------------------------|
E --2-2-2-2-2-2-2-2-2-2-2-2-4-5-5-5-5--------------------------|
C -------------------------------------------------------------|
G ------------------------------------4-4-6--6--6--6--6--6-----|

A -------------------------------------------------------------|
E -------------------------------------------------------------|
C -------------------------------------------------------------|
G --6--8--6--9--9--9--9--8--8--6--8--6--6----------------------|

A -------------------------------------------------------------|
E -------------------------------------------------------------|
C -------------------------------------------------------------|
G --6--8--6--9--9--9--9--8--8--6--8--6--6----6--4-6------------|
End on F#m F#m

⇢ Not happy with this tab? View 1 other version(s)

Uke tab by , 07 Mar 2018

Tab comments (3)

Something to say?
Share your strumming patterns, chords or tips to play this tab! ;)
Filter by:
tracylowe571 avatar
Tell me your deepest fantasy. Tonight, I'm all yours to fulfill it, and create a few of our own. f1nd me on tracylowe_mooo_com change _ to dot
16 Jul 2024
Comment
Jezebelx avatar
love this!
23 Jan 2021
Comment
valeftv0ice avatar
mobile flag for AR(ISO2) (Mendoza)
amazingggg I love it
01 Dec 2020
Comment

About this song: Harness Your Hopes

No information about this song.

Did you cover Harness Your Hopes on your Ukulele? Share your work!
Submit a cover