Bookends Uke tab by Paul Simon

3 Chords used in the song :

Add tab to your SongBook

View these chords for the Baritone

Transpose chords:
Tablature / ChordsFont size: A- A A+

Don't know how to read a tab or a chord ? Check out these uke lessons:

How to read uke tabs
Reading chord diagrams


A|----------------------------------------|
E|-2-4-5--2-4-5--2-4-5--2-4-5--4-0-0------|
C|----------------------------------------|
G|-2-4-6--2-4-6--2-4-6--2-4-6--4-2-1------|

F#m chordF#m E chordE
Time it was and what a time it was it was

A|----------------------------------------|
E|-0-4-0-2-0---0--0-2-0-4-0---0-----------|
C|-----------1----------------------------|
G|-1-4-1-2---2------2-1-4---4-------------|

A chordA E chordE
A chordA time of innocence a time of confidences

F#m chordF#m E chordE
Long ago it must be I have a photograph
A chordA E chordE
Preserve your memories they're all that's left you

 

Tab comments (0)
No comment yet :(
Need help, a tip to share, or simply want to talk about this song? Start the discussion!

You must be logged in to join the discussion
or Register

 

About this song

No information about this song.

0.0285 sec, 4 Q