Decode (Riff) Uke tab by Paramore

Ukulele Tab without chords.

Add tab to your SongBook
Tablature / ChordsFont size: A- A A+

Don't know how to read a tab or a chord ? Check out these uke lessons:

Detailed guide to strumming and picking
How to read uke tabs
Reading chord diagrams

A|-----------------------------------------------------------------------------------8-----------|
E|---6-----6-----6--------------6-----6-----6----------------6---4---6---4---6---4---------4-----|
C|------5-----5-----5-----5--------5-----5-----5------5------------------------------------------|
G|----------------------6---------------------------6--------------------------------------------|



A|----------------------------------------|
E|---6---4---6---4---6---4----------------|
C|----------------------------------------|
G|---------------------------8------------|

 

Tab comments (0)
No comment yet :(
Need help, a tip to share, or simply want to talk about this song? Start the discussion!

You must be logged in to join the discussion
or Register

 

About this song

This song is by rock group Paramore and was the lead single from the soundtrack of the highly successful film "Twilight" and was released on 4th November 2008, a few weeks before the film's theatre debut. Read more on Last.fm.