Sakura Kiss Uke tab by Ouran High School Host Club

Ukulele Tab without chords.

Add tab to your SongBook
Tablature / ChordsFont size: A- A A+

Don't know how to read a tab or a chord ? Check out these uke lessons:

Detailed guide to strumming and picking
How to read uke tabs
Reading chord diagrams

Long needed edit because I realized that this was way too high for a lot of ukes (Shout-out to Cutiepie_boots)

Kiss kiss fall in love!
A|----------0-----------------------------|
E|-3-3-3-2-------------------------------|
C|----------------------------------------|
G|----------------------------------------|

I see you come I watch you go
A|----------------------------------------|
E|-2-0-2------2-0-2---------------------|
C|-------2-----------2-------------------|
G|----------------------------------------|

You never seem to leave me though,
A|----------------------------------------|
E|---3-3-3-3-3-2-2----------------------|
C|-2--------------------------------------|
G|----------------------------------------|

So is this love or hate
A|-----------------------------------------|
E|-2-0-2----2-0---------------------------|
C|--------2--------------------------------|
G|----------------------------------------|

We'll see, you're making me crazy
A|-----------------------------------------|
E|-2-3-2-2-2-2-0-------------------------|
C|-----------------2-----------------------|
G|-----------------------------------------|

Inside my dreams you're all I see
A|----------------------------------------|
E|-2-0-2----2-0-2-----------------------|
C|--------2--------2---------------------|
G|----------------------------------------|

Well all I see is you and me
A|----------------------------------------|
E|---3-3-3-3-3-2-2----------------------|
C|-2--------------------------------------|
G|----------------------------------------|

Lady maybe, or host
A|----------------------------------------|
E|-2-0-2---2-0---------------------------|
C|-------2--------------------------------|
G|----------------------------------------|

I find I really don't mind
A|----------------------------------------|
E|-2-3-2-2-2-0--------------------------|
C|--------------2------------------------|
G|----------------------------------------|

If I have to choose a rose
A|------------0----------------------------|
E|-2-2-2-2-3------------------------------|
C|--------------2--------------------------|
G|-----------------------------------------|

In this garden of Romance
A|----------------------------------------|
E|----------0-2-3------------------------|
C|-2-2-2-2-------------------------------|
G|----------------------------------------|

Maybe we could take this chance
A|----------0-2-----------------------------|
E|-3-3-3-3-----0--------------------------|
C|----------------------------------------|
G|----------------------------------------|

Maybe you're my love!
A|----------0-----------------------------|
E|-3-3-3-2-------------------------------|
C|----------------------------------------|
G|----------------------------------------|

And I would like to find
A|--0-0-0-----------------------------------|
E|-2-2-2-------------------------------------|
C|----------------------------------------|
G|----------------------------------------|

A A hand like yours to take mine
A|--0-0-0-2-0---------------------------------|
E|-2-2-2-------------------------------------|
C|----------------------------------------|
G|----------------------------------------|

And with one kiss
A|-0-5-4-0------------------------------|
E|----------------------------------------|
C|----------------------------------------|
G|----------------------------------------|

We could stop time and I'd fall in love with you
A|-----0-5-4-0----------0---------------|
E|-2-3----------3-3-3-2-----------------|
C|----------------------------------------|
G|----------------------------------------|

Tomorrow's far away
A|--0-0-0--------------------------------|
E|-2-2-2---------------------------------|
C|----------------------------------------|
G|----------------------------------------|


Let's place our hope in today
A|--0-0-0-2-0---------------------------|
E|-2-2-2---------------------------------|
C|----------------------------------------|
G|----------------------------------------|


Just you and me
A|-0-5-4-0-------------------------------|
E|----------------------------------------|
C|----------------------------------------|
G|----------------------------------------|


In a beautiful spring
A|-----0-5-4-0-2------------------------|
E|-2-3------------------------------------|
C|----------------------------------------|
G|----------------------------------------|
And we'll always fall in love
A|-0-2-0------0-2-0---------------------|
E|----------------------------------------|
C|-------2-----------2-------------------|
G|----------------------------------------|

Again!
A|---5------------------------------------|
E|----------------------------------------|
C|-2---------------------------------------|
G|----------------------------------------|

Maybe you're my love!
A|----------0-----------------------------|
E|-3-3-3-2-------------------------------|
C|----------------------------------------|
G|----------------------------------------|


Old version (way too high):

Kiss kiss fall in love!
A|-10-10-10-9-12------------------------|
E|----------------------------------------|
C|----------------------------------------|
G|----------------------------------------|

I see you come I watch you go
A|-9-7-9-5--9-7-9-5-------------------|
E|----------------------------------------|
C|----------------------------------------|
G|----------------------------------------|

You never seem to leave me though,
A|-2-10-10-10-10-10-9-9----------------|
E|----------------------------------------|
C|----------------------------------------|
G|----------------------------------------|

So is this love or hate
A|-9-7-9-5-9-7--------------------------|
E|----------------------------------------|
C|----------------------------------------|
G|----------------------------------------|

We'll see you're making me crazy
A|-9-10-9-9-9-9-7-5--------------------|
E|----------------------------------------|
C|----------------------------------------|
G|----------------------------------------|

Inside my dreams you're all I see
A|-9-7-9-5--9-7-9-5---------------------|
E|----------------------------------------|
C|----------------------------------------|
G|----------------------------------------|

Well all I see is you and me
A|-2-10-10-10-10-10-9-9----------------|
E|----------------------------------------|
C|----------------------------------------|
G|----------------------------------------|

Lady maybe, or host
A|-9-7-9-5-9-7-----------------------|
E|----------------------------------------|
C|----------------------------------------|
G|----------------------------------------|

I find I really don't mind
A|-9-10-9-9-9-7-5---------------------|
E|----------------------------------------|
C|----------------------------------------|
G|----------------------------------------|

If I have to choose a rose
A|-9-9-9-9-10-12-5---------------------|
E|----------------------------------------|
C|----------------------------------------|
G|----------------------------------------|

In this garden of Romance
A|-5-5-5-5-7-9-10---------------------|
E|----------------------------------------|
C|----------------------------------------|
G|----------------------------------------|

Maybe we could take this chance
A|-10-10-10-10-12-14-7--------------|
E|----------------------------------------|
C|----------------------------------------|
G|----------------------------------------|

Maybe you're my love!
A|-10-10-10-9-12------------------------|
E|----------------------------------------|
C|----------------------------------------|
G|----------------------------------------|

And I would like to find
A|-9-12-9-12-----------------------|
E|----------------------------------------|
C|----------------------------------------|
G|----------------------------------------|

A A hand like yours to take mine
A|-9-12-9-12-9-12-14-12------------|
E|----------------------------------------|
C|----------------------------------------|
G|----------------------------------------|

And with one kiss
A|-12-17-16-12------------------------|
E|----------------------------------------|
C|----------------------------------------|
G|----------------------------------------|

We could stop time and I'd fall in love with you
A|-9-10-12-17-16-12----------------------------------|
E|----------------------------------------|
C|----------------------------------------|
G|----------------------------------------|

fall in love with you
A|-10-10-10-9-12------------------------|
E|----------------------------------------|
C|----------------------------------------|
G|----------------------------------------|


Tomorrow's far away
A|-9-12-9-12-9-12-------------------------|
E|----------------------------------------|
C|----------------------------------------|
G|----------------------------------------|


Let's place our hope in today
A|-9-12-9-12-9-12-14-12----------------|
E|----------------------------------------|
C|----------------------------------------|
G|----------------------------------------|


Just you and me
A|-12-17-16-12-----------------------|
E|----------------------------------------|
C|----------------------------------------|
G|----------------------------------------|


In a beautiful spring
A|-9-10-12-17-16-12-14-------------------|
E|----------------------------------------|
C|----------------------------------------|
G|----------------------------------------|

And we'll always fall in love
A|-12-14-12-5 12-14-12-5-----------------|
E|----------------------------------------|
C|----------------------------------------|
G|----------------------------------------|

Again!
A|-5-17--------------------------------------|
E|----------------------------------------|
C|----------------------------------------|
G|----------------------------------------|

Maybe you're my love!
A|-10-10-10-9-12-------------------------|
E|----------------------------------------|
C|----------------------------------------|
G|----------------------------------------|

 

Tab comments (1)
You must be logged in to join the discussion
or Register

 

Cutiepie_Boots avatar
flag for US(ISO2) (Chicago)
My uke doesn’t go that high rip
09 Jun 2018
About this song

No information about this song.