Barcelona Nights Uke tab by Ottmar Liebert

Ukulele Tab without chords.

PrintAdd tab to your SongBook
Tablature / ChordsFont size: A- A A+

Don't know how to read a tab or a chord ? Check out these uke lessons:

Detailed guide to strumming and picking
How to read uke tabs
Reading chord diagrams

H                                              
A------------------------------------------------
E---5--5-------5---3--3-5---5-3---5--5-------5---
C------------------------------------------------ G-5------4-5-4---4--------4-----5------4-5-4---4-
H
A------------------------------------------------
E---5--5-------5---3--3-5---5-3---5--5-------5---
C------------------------------------------------
G-5------4-5-4---4--------4-----5------4-5-4---4-

A-----------------------------------------------------------------------------
E-------------5--5-------5---3--3-5---5-3---5--5--------5---------5--3-3-5----
C-----------------------------------------------------------------------------
G-7--5-4-5--5------4-5-4---4--------4-----5-------4-5-4----7--5-4-----------4-
H
A------------------------------------------------
E---5--5-------5---3--3-5---5-3---5--5-------5---
C------------------------------------------------ G-5------4-5-4---4--------4-----5------4-5-4---4-

A----------------------------------------------------------------------------------
E--------------------------3-----------5--------5---------------5------5-----------
C-2-4-5--4-2----------4-5----5--4-2-4----------------------------------------------
G------------5--4-5-----------------------4-5-4----4-5-7--4-5-4----5-4----4-7--4-5-

A----------------------------------------------------------------------------------
E---------------------------------------3------------------------5-5--------5-3--5-
C-4-5--4-2-4--4-5--4-2-4--4-5--4-2-4-5----5--4-------2-4-5--4----------------------
G-----------------------------------------------4-5-----------5--------5--4--------

A--------------------------------------------------------------------
E-------------3--------------------------------------3-5--3----------
C----2-4-5--4---5--4-2-5--4-2------2------------4-5---------5--4-2-4-
G-5---------------------------5--4---5--4-5--------------------------

A-----------------------------------------------------------------------------
E------3---------------------3-5--------5-------------------5--------3-5--3---
C-4-5----5--2-5--4-2-4----5--------------------------------------2-4--------4-
G---------------------------------4-5-4----4-4-5-7--5-4-5-----5---------------

A------------------------------------------------
E---5--5-------5---3--3-5---5-3---5--5-------5---
C------------------------------------------------ G-5------4-5-4---4--------4-----5------4-5-4---4-

A------------------------------------------------------------------
E---------------------5--5-------5---3--3-5---5-3---5--5-------5---
C------------------------------------------------------------------
G-4-5-7--5-4-5-4----5------4-5-4---4--------4-----5------4-5-4---4-

A-------------------------------------------------------------------------
E---5--5-------5---3--3-5---5-3---5--5-----------------5--------5--3-5----
C-------------------------------------------------------------------------
G-5------4-5-4---4--------4-----5-------4-5-4-5-7--5-4----4-5-4---------4-

A-------------------------------------------------------------------------------
E---------------------------3----------5--------5------5--------5---------------
C-2-4-5--4-2-----------4-5----5--4-2-4------------------------------------------
G------------5---4-5----------------------4-5-4----4------4-5-4----4----4-4-4-4-

A----------------------------------------------------------------------------------
E---------------------5------------------------------------------------------------
C---------------------------------------------------------------------------------------
G-4-4--4-4-5-4-5----4-----4--5-7--9----5-7--4----5-7--5---4--5-7--9----7--5-4----5-7--5-

A----------------------------------------------------------------------------------
E---------------3------------------------------3--------------------------3--------
C------2-4-5--4---5--4-2-5--4---------2-4-5--4---5--4-2-4--------2-4-5--4---5--4-2-4-
G-4-5----------------------------4-5------------------------4-5--------------------

A----------------------------------------------------------------------------
E---------------3------------------------------------------------------------
C------2-4-5--4---5--4-2-5--4------4-5--4-------------2------4-5--4---2------
G-4-5---------------------------5-----------5--4---5----5---------------5--4-

A--------------------------------------------------------------------
E-----------------------5--5-------5---3--3-5---5-3---5--5-------5---
C----2-----------4-5--4----------------------------------------------
G-5----5--4-5---------5------4-5-4---4--------4-----5------4-5-4---4-

A------------------------------------------------
E---5--5-------5---3--3-5---5-3---5--5-------5---
C------------------------------------------------ G-5------4-5-4---4--------4-----5------4-5-4---4-

A-----------------------------------------------------------------------------
E-----------------------------3------------------------------3----------------
C-2-4-5--4-2-------------4-5----5--4-2-4---4-5--4---2-4-5--4---4---4-5--4-2-4-
G------------5----4-5---------------------------------------------------------
s s
A--------------------------------------------------------------7---------------
E---------------3-5----------------------------5--3-3---5--3-3-----------------
C-4-5--4-2-4-5-----------------------------------------------------4-5--4-2----
G--------------------4-5-7--5-4-5---4-5-7--4----------------------(--------)x4-

A-------------------------------------------------------------------------------
E-5---------------------------5---5--------------------------3-5--------5--3-5--
C--------2-4-5--4-2-------------------4-5--4-2-4-5--4-2-4-----------------------
G---4-5-------------5--4-5--4---4---------------------------------4-5-4---------

A---------------------------------
E---------------------------------
C-4-4-4-5--4-2---4-4-4-4-5--4-2-4-
G---------------------------------

 

Tab comments (1)
You must be logged in to join the discussion
or Register

 

Dodo avatar
Maybe you could fix the display of the tab, some lines are out of order. Or is this just me? Otherwise i think its quite good. Thx!
26 Nov 2012
About this song

No information about this song.