Secrets Uke tab by One Republic

4 Chords used in the song: D, Gbm, Bm, G

Add tab to your SongBook
Tablature / ChordsFont size: A- A A+

Don't know how to read a tab or a chord ? Check out these uke lessons:

Detailed guide to strumming and picking
How to read uke tabs
Reading chord diagrams

# Intro

A|-------0---0-----------0---0--------|
E|-----2---2---2---2---2---2---2---2--|
C|---2-----------2---2-----------2----|
G|------------------------------------|

A|-------0---0-----------0---0--------|
E|-----2---2---2---2---2---2---2---2--|
C|---1-----------1---1-----------1----|
G|------------------------------------|

A|-------2---2-----------2---2--------|
E|-----2---2---2---2---2---2---2---2--|
C|---2-----------2---2-----------2----|
G|------------------------------------|

A|-------2---2-----------2---2--------|
E|-----3---3---3---3---3---3---3---3--|
C|---2-----------2---2-----------2----|
G|------------------------------------|

# repeat twice

# verse
D D Gbm Gbm Bm Bm G G

# chorus
D D Gbm Gbm Bm Bm G G

 

Tab comments (1)
You must be logged in to join the discussion
or Register

 

jocylinsings avatar
flag for US(ISO2) (Vancouver)
did you know that this is almost exactly the same as how you play someone like you by adele asides from the picking pattern its the exact same chords!!! haha
29 Jun 2012
About this song

No information about this song.