Kissing In The Falling Rain Uke tab by Odd Hugo

2 Chords used in the song: Em, C5

Add tab to your SongBook
Tablature / ChordsFont size: A- A A+

Don't know how to read a tab or a chord ? Check out these uke lessons:

Detailed guide to strumming and picking
How to read uke tabs
Reading chord diagrams

intro:
Em Em
A|---2-------7-----5------|
E|---3--------------------|
C|---4--------------------|
G|---0----0-----0-----0---|
Em Em
A|---2-------7-----5------|
E|---3--------------------|
C|---4--------------------|
G|---0----0-----0-----0---|
C5 C5
A|---2-------7-7-7-7------|
E|---2--------------------|
C|---0--------------------|
G|---0----0-----------0---|
Em Em
A|---2----0----2----------|
E|---3----3----3----------|
C|---4----4----4----------|
G|---0----0----0----------|

Verse 1:
Em Em Em Em
I've heard songs of pain
Em Em Em Em C5 C5 C5 C5 Em Em Em Em
And about kissing in the falling rain
Em Em Em Em
I've heard times will change
Em Em Em Em C5 C5 C5 C5 Em Em Em Em
The cool winds will be warm again

Oh
A|-------------------------------------------------|
E|----2----2---------5----7----7----5----3----3----|
C|-------------------------------------------------|
G|-2----2----2----5----5-----7----5----5----4------|

A|-------------------------------------------------|
E|----2----2---------5----7----7----5----3----3----|
C|-------------------------------------------------|
G|-2----2----2----5----5-----7----5----5----4------|
Oh

Verse 2:

Em Em Em Em
I've heard hearts will break
Em Em Em Em C5 C5 C5 C5 Em Em
and I've heard your illusions of love are fake
Em Em Em Em
but to me it all sounds the same
Em Em Em Em C5 C5 C5 C5 Em Em Em Em
I never trust the shining frames of fame

Oh
A|-------------------------------------------------|
E|---2----2---------5----7----7----5----3----3-----|
C|-------------------------------------------------|
G|-----2----2----5----5-----7----5----5----4-------|

A|-------------------------------------------------|
E|---2----2---------5----7----7----5----3----3-----|
C|-------------------------------------------------|
G|-----2----2----5----5-----7----5----5----4-------|
Oh

Bridge:

A|---2-------2-------2-------2------------|
E|--3--3----3--3----3--3----3--3----------|
C|-4-------4-------4-------4--------------|
G|----------------------------------------|

A|---3-------3-------3-------3------------|
E|--2--2----2--2----2--2----2--2----------|
C|-4-------4-------4-------4--------------|
G|----------------------------------------|

A|---0-------0-------0-------0------------|
E|--2--2----2--2----2--2----2--2----------|
C|-2-------2-------2-------2--------------|
G|----------------------------------------|

A|---0-------0-------3-------3------------|
E|--0--0----0--0----0--0----0--0----------|
C|-0-------0-------0-------0--------------|
G|----------------------------------------|
*repeat above 4 picking sequences with "I will" bridge lyrics and repeat lyrics through entire sequence 2x (8 "I wills" per tabulature line, 8 total tabs per bridge)
I will I will I will I will I will I will I will I will
I will I will I will I will I will I will I will I will
I will I will I will I will I will I will I will I will
I will I will I will I will I will I will I will I will

Verse 3:

Em Em Em Em
I will never trust
Em Em Em Em
I'll never trust
Em Em Em Em
I'll never trust
Em Em Em Em
I will never trust
Em Em Em Em
I will never trust the shining frames of fame
Em Em Em Em
there of you some so deep
Em Em Em Em
that make my knees go weak
Em Em Em Em
I've fallen to the ground
Em Em Em Em
and as the mud dries
Em Em Em Em
it's a perfect disguise
Em Em Em Em
for my despise

 

Tab comments (0)
No comment yet :(
Need help, a tip to share, or simply want to talk about this song? Start the discussion!

You must be logged in to join the discussion
or Register

 

About this song

No information about this song.