Wonderwall (Intro) Uke tab by Oasis

4 Chords used in the song: Em7,G,Gsus4,Dsus42

Add tab to your SongBook
Tablature / ChordsFont size: A- A A+

Don't know how to read a tab or a chord ? Check out these uke lessons:

Detailed guide to strumming and picking
How to read uke tabs
Reading chord diagrams

Wonderwall by Oasis - Intro only

Em7 Em7 G G Gsus4 Gsus4 Dsus2 Dsus2
v v v v ^ v ^ v v v ^ v ^ v v v ^ ^ ^ v ^ v ^
A||---2--2--2--2-2-2-2-2--2--0-0-|--0-0-0--0--0-0--0--0-0-0-0-0-|
E||*--0--0--0--3-3-3-3-3--3--3-3-|--3-3-3--3--0-0--0--0-0-0-0-0-|
C||*--2--2--2--2-2-2-2-2--2--2-2-|--2-2-2--2--2-2--2--2-2-2-2-2-|
G||---0--0--0--0-0-0-0-0--0--0-0-|--0-0-0--0--0-0--0--0-0-0-0-0-|

Em7 Em7 G G Gsus4 Gsus4 Dsus2 Dsus2
v v v v ^ v ^ v v v ^ v ^ v v v ^ ^ ^ v ^ v ^ 4x
--2--2--2--2-2-2-2-2--2--0-0-|--0-0-0--0--0-0--0--0-0-0-0-0---||
--0--0--0--3-3-3-3-3--3--3-3-|--3-3-3--3--0-0--0--0-0-0-0-0-*-||
--2--2--2--2-2-2-2-2--2--2-2-|--2-2-2--2--2-2--2--2-2-2-2-2-*-||
--0--0--0--0-0-0-0-0--0--0-0-|--0-0-0--0--0-0--0--0-0-0-0-0---||

It's very important to have a good strumming pattern in this song,
so please follow the 'brush up' and 'brush down' marks I added.

THERE ARE NO LYRICS IN THIS TAB, PLEASE DON'T REMOVE THIS TEXT!

Tablature Legend
----------------
v - brush down
^ - brush up

 

Tab comments (1)
You must be logged in to join the discussion
or Register

 

ryanharrison avatar
flag for GB(ISO2) (Portsmouth)
very helpful :)
14 Mar 2010
About this song

"Wonderwall" is a song by British rock band Oasis, written by the band's guitarist and chief songwriter Noel Gallagher. Released as the third single from (What's the Story) Morning Glory? in October 1995, "Wonderwall" peaked at number two in the UK Singles Charts and proved to be their American breakthrough, reaching number eight on the Hot 100 and giving them their only top-ten hit in the US thus far.