Fairytale Uke tab by Milky Chance

5 Chords used in the song: Gm, F, D#, Bb, Cm

Add tab to your SongBook
Tablature / ChordsFont size: A- A A+

Don't know how to read a tab or a chord ? Check out these uke lessons:

Detailed guide to strumming and picking
How to read uke tabs
Reading chord diagrams

A|-------|-------|-----------|---|
E|3---3--|1---1--|-----------|1--|
C|-------|-------|3---3---3--|---|
G|--3---3|--2---2|--0---0---0|--2|

A|-------|-------|-----------------------|------|-------|---------------|
E|3-3---3|6-6---6|------3--------3-----3-|3-3--3|3-3---3|1-1---1-1---1--|
C|-------|----2--|-----------------------|------|-------|---------------|
G|----3--|-------|8--8-----8--8-----8----|----5-|----3--|----2-----2---2|

A|----------------66556655----------6655-----------------------|
E|33355665533---11--------------------------------3311----66---|
C|-2--------------------------------------------------2200-----|
G|-3----------------------5533223355----5533223322-------------|

A|----------------66556655----------6655--------------------|
E|33355665533---11--------------------------------3311----66|
C|-2--------------------------------------------------2200--|
G|-3----------------------5533223355----5533223322----------|


**************************************************************************

Intro(Pattern 1):

2x Gm Gm, F F, D# D#, F F


Chorus(Pattern 1):

Gm Gm F F D# D# F F
You are a fairy-tale
Gm Gm F F D# D# F F
Don't you wanna stay?
Gm Gm F F D# D# F F
You are a fairy-tale
Gm Gm F F D# D#
I hope that you don't run away


Interlude(Pattern 2):

2x Gm Gm,Bb Bb,D# D#,Cm Cm,Gm Gm,F F


Verse(Pattern 2 - Chords strummed):

Gm Gm Bb Bb D# D#
We should run away
Cm Cm Gm Gm F F
I can hear them tapping on the ground
Gm Gm Bb Bb D# D#
Where do we wanna go?
Cm Cm Gm Gm F F
I know an ambush where we won't be found
Gm Gm Bb Bb D# D#
And so we went to the place, honey. Listening to the ALL-NIGHT-
Cm Cm Gm Gm F F
SINGING-SWEET-MELODIES-FAIRY TREES
Gm Gm Bb Bb D# D#
And there was no better place to be And so we took off to the moon
Cm Cm Gm Gm F F
and all the shining lights in the night


Chorus(Pattern 1):

Gm Gm F F D# D# F F
You are a fairy-tale
Gm Gm F F D# D# F F
Don't you wanna stay?
Gm Gm F F D# D# F F
You are a fairy-tale
Gm Gm F F D# D#
I hope that you don't run away


Interlude(Pattern 2):

2x Gm Gm,Bb Bb,D# D#,Cm Cm,Gm Gm,F F


Chorus(Pattern 2):

Gm Gm Bb Bb D# D#
You are a fairy-tale
Cm Cm Gm Gm F F
Don't you wanna stay?
Gm Gm Bb Bb D# D#
You are a fairy-tale
Cm Cm Gm Gm F F
I hope that you don't run away



Chorus(Pattern 2 - strummed):

Gm Gm Bb Bb D# D#
You are a fairy-tale
Cm Cm Gm Gm F F
Don't you wanna stay?
Gm Gm Bb Bb D# D#
You are a fairy-tale
Cm Cm Gm Gm F F
I hope that you don't run away

 

Tab comments (0)
No comment yet :(
Need help, a tip to share, or simply want to talk about this song? Start the discussion!

You must be logged in to join the discussion
or Register

 

About this song

No information about this song.