The Day That Never Comes (Intro) Uke tab by Metallica

Ukulele Tab without chords.

Add tab to your SongBook
Tablature / ChordsFont size: A- A A+

Don't know how to read a tab or a chord ? Check out these uke lessons:

Detailed guide to strumming and picking
How to read uke tabs
Reading chord diagrams

X - pause
/ - slide up
h - hammer on
p - pull off
~ - vibrato



Intro
A|-----7-------7---|-----7-------7---|------9---------9----|-----7-------7---|
E|---8---8---8---8-|---7---7---7---7-|---10---10---10---10-|---8---8---8---8-|
C|-9-------9-------|-7-------7-------|-7---------7---------|-9-------9-------|x2
G|-----------------|-----------------|---------------------|-----------------|
|_|_|_| |_|_|_| |_|_|_| |_|_|_| |_|__|_| |_|__|_| |_|_|_| |_|_|_|

A|-5--7----------|--------|-5--7----------|--------|
E|-------5-X-5/7-|-3------|-------5-X-5/7-|-5------|
C|---------------|--------|---------------|--------|x2
G|---------------|--------|---------------|--------|
| |__| | | | | |__| | | |

A|-5--7----------|------------------|------------------|------------------|
E|-------5-X-5/7-|-3--3/5--5/7--7/8-|-7--3/5--5/7--7/8-|-8-5_____--3__--5-|
C|---------------|------------------|------------------|------------------|
G|---------------|------------------|------------------|------------------|
| |__| | | | |_| |_| |_| | |_| |_| |_| |_| |__| |__|

A|-------------------------|------------------|-----------7--------|-----7--8--7--8--10-|-12~~~~~~-|
E|-5---3-5--7--5-7--8--7-8-|-10--8-X-7h8p7~~~-|-7--8--10-----10--8-|-10-----------------|----------|
C|-------------------------|------------------|--------------------|--------------------|----------|
G|-------------------------|------------------|--------------------|--------------------|----------|
| |_|__| |_|__| |_| |___| |_| | |__|__| |__|___| |___|__| |__|__| |

 

Tab comments (0)
No comment yet :(
Need help, a tip to share, or simply want to talk about this song? Start the discussion!

You must be logged in to join the discussion
or Register

 

About this song

The first single off the 2008 Metallica album Death Magnetic. It's 7 minutes and 56 seconds long. Premiered at 11am PST on August 21, 2008 at Metallica.com and MissionMetallica.com as well as on many radio stations worldwide. The song was played live for the first time on August 22, 2008 at Leeds Festival, where Metallica headlined the first day.Music video for The Day That Never Comes was shot in the desert outside of Los Angeles, CA on July 31, 2008 and directed by Danish filmmaker Thomas Vinterberg. Read more on Last.fm.