One (Intro) Uke tab by Metallica

Ukulele Tab without chords.

Add tab to your SongBook
Tablature / ChordsFont size: A- A A+

Don't know how to read a tab or a chord ? Check out these uke lessons:

Detailed guide to strumming and picking
How to read uke tabs
Reading chord diagrams

A----4---0------4---0------4---0------4---0-5-----4---0---
E--2---2-----------------2---2------------------2---2-----
C-------------4---4-----------------4---4-----------------
G---------------------------------------------------------

A----4---0------4---4--------------
E--0---0-------------------2---2---
C-------------4---4------1---3-----
G----------------------------------

 

Tab comments (2)
You must be logged in to join the discussion
or Register

 

fabio13 avatar
flag for PT(ISO2) (Ponte de Lima)
For the intro is fine, the sound isn't the best but it's good
07 Jan 2012
idiombomberz avatar
Obviously needs work.
07 Jan 2012
About this song

No information about this song.