Nothing Ele Matters (Intro) Uke tab by Metallica

Ukulele Tab without chords.

Add tab to your SongBook
Tablature / ChordsFont size: A- A A+

Don't know how to read a tab or a chord ? Check out these uke lessons:

Detailed guide to strumming and picking
How to read uke tabs
Reading chord diagrams

A|-----2-7-2-------2-7-2-------2-7-2---|
E|---3-------3---3-------3---3-------3-|
C|-4-----------4-----------4-----------|
G|-------------------------------------|



A|-----2-7-2--2-2--2--2-3-2-0-2-0-----------|
E|---3-----------------------------------0--|
C|-4------------------------------0-0--0----|
G|------------------------------------------|



A|--------0------0-2-3----------------------------0--|
E|-2p0--------0----0-0---0---3p0--0-0-2---2---2------|
C|------0---0----------0---0--------0-2-2---2---2----|
G|----------------------------------0-2--------------|



A|-----2-7-2-------2-7-2-------2-7-2-------2-7-2-----|
E|---3-------3---3-------3---3-------3---3-------3---|
C|-4-----------4-----------4-----------4-------------|
G|---------------------------------------------------|


A|---------2-----------3---------2-----------3------|
E|-----3-------2-----0-------3-------2-----0--------|
C|-4-4---4---2-----0-----4-4---4---2-----0----------|
G|---------------2---------------------2------------|



A|---------2-----------------------2---------------|
E|-----3---------2-------0---3-3-----2-2-----------|
C|-4-4---4---2-----2-0-----0-----2-------3---------|
G|-------------2-------0-----0-------4-----4-------|



A|-----2-7-2-------2-7-2---|
E|---3-------3---3-------3-|
C|-4-----------4-----------|
G|-------------------------|

 

Tab comments (1)
You must be logged in to join the discussion
or Register

 

TheOtherOne avatar
Nice job.
02 Mar 2014
About this song

No information about this song.