Freezing Moon Uke tab by Mayhem

0 Chords used in the song:

PrintAdd tab to your SongBook
Tablature / ChordsFont size: A- A A+

Don't know how to read a tab or a chord ? Check out these uke lessons:

Detailed guide to strumming and picking
How to read uke tabs
Reading chord diagrams

:-0
:---0
:0---3
:--0 Repeat 3 times then do this

:--------------
:2-3-2-3-4-5-6-
:--------------
:-------------- Repeat all that about 8 times


then

:-----------------------------------------------
:-----------------------------------------------
:0-0-0-7-7-7-0-0-0-6-6-6-0-0-0-7-7-7-0-0-0-1-1-1-
:------------------------------------------------
do that about 10 times then do this

:-----------
:-----------
:0-2-0-0-0-2
:-----------
do that about 20 times then do this
:------------
:-----------
:0-7h8-0-7h8
:-----------
then do this faster
:
:----------------6-6-6-6
:0-0-0-0-5-5-5-5---------5-5-5-5
:
a few times

 

Tab comments (0)
No comment yet :(
Need help, a tip to share, or simply want to talk about this song? Start the discussion!

You must be logged in to join the discussion
or Register

 

About this song

No information about this song.