Chimchim Cheree Uke tab by Mary Poppins

Ukulele Tab without chords.

Add tab to your SongBook
Tablature / ChordsFont size: A- A A+

Don't know how to read a tab or a chord ? Check out these uke lessons:

Detailed guide to strumming and picking
How to read uke tabs
Reading chord diagrams

|-----5-3-5---6---5---3-------5-3-5---6---5---3--|
|-3---------------2-------3---------------2------|
|-2-----------2-----------2-----------2----------|
|-0-------------------2---0-------------------2--|

|-----5-5-5-------5-5-5---5---6-----5-3-------3--|
|-3-----------2-----------1-----------0----------|
|-2-----------2-----------2-----------0----------|
|-0-----------2-----------0----------------------|

|-3---5---3---1---3---1---0-------0---5----------|
|-3-----------3-----------0---4-------2----------|
|-3-----------2-----------1-----------2----------|
|-0-----------0-----------0-----------2----------|

|-----5-5-5---5---5-5-5---5---6-----5-3-------3--|
|-3-----------2-----------1-----------0----------|
|-2-----------2-----------2-----------0----------|
|-0-----------2-----------0----------------------|

|-3---5---3---1---3---1---0---1-----0---------10-|
|-3-----------3-----------2-----------3----------|
|-3-----------2-----------0-----------2----------|
|-0-----------0-----------2-----------0----------|

|10---8------10-----------9--10---12-10----------|| |-8-----------6-----------8----------10----------|| |-9-----------7-----------9----------10----------||
|-8-------8---0-------7---------------0----------||

 

Tab comments (1)
You must be logged in to join the discussion
or Register

 

Bintang avatar
Not quite sure about the last line, but the rest of it works out just fine...
23 Jun 2010
About this song

No information about this song.