Chim Chim Chre-ee Uke tab by Mary Poppins

Ukulele Tab without chords.

9.5/10
PrintAdd tab to your SongBook

Tablature / Chords (

Font size: A- A A+

Artist: 
Album:  unknown
Key: unknownTablature (no chords)
A|----------------------------------------|
E|----------------------------------------|
C|----------------------------------------|
G|2--2-2-2--2--2-2-2--2--3--2-0-----------|



A|--------------------0-------------------|
E|----------------------------------------|
C|--------5---5-4-3-4---------------------|
G|0-0-2-0---0-----------------------------|

Uke tab by , 30 Jun 2015

Tab comments (0)

No comment yet :(
Need help, a tip to share, or simply want to talk about this song? Start the discussion!

Something to say?
Share your strumming patterns, chords or tips to play this tab! ;)

Top Tabs & Chords by Mary Poppins, don't miss these songs!

About this song: Chim Chim Chre-ee

No information about this song.

Did you cover Chim Chim Chre-ee on your Ukulele? Share your work!
Submit a cover