Sugar Uke tab by Maroon 5

4 Chords used in the song :

Add tab to your SongBook

View these chords for the Baritone

Transpose chords:
Tablature / ChordsFont size: A- A A+

Don't know how to read a tab or a chord ? Check out these uke lessons:

How to read uke tabs
Reading chord diagrams


CAPO 1ST FRET - IMPORTANT

THAN PLAY

Db chordDb play like this
A|-4--------------------------------------|
E|-4--------------------------------------|
C|-5--------------------------------------|
G|-6--------------------------------------|

Ebm7 chordEbm7 play like this
A|-6--------------------------------------|
E|-6--------------------------------------|
C|-6--------------------------------------|
G|-6--------------------------------------|


Db chordDb Am7 chordAm7 Ebm7 chordEbm7 Db chordDb

F chordF Am7 chordAm7 Ebm7 chordEbm7 Db chordDb

 

Tab comments (0)
No comment yet :(
Need help, a tip to share, or simply want to talk about this song? Start the discussion!

You must be logged in to join the discussion
or Register

 

About this song

Read more on Last.fm.