Luis Fonsi - Despacito Ft. Daddy Yankee (Intro) Uke tab by Luis Fonsi

Ukulele Tab without chords.

Add tab to your SongBook
Tablature / ChordsFont size: A- A A+

Don't know how to read a tab or a chord ? Check out these uke lessons:

Detailed guide to strumming and picking
How to read uke tabs
Reading chord diagrams

This is my first post/tab.
This is going to be sometimes slow and sometimes fast. JUST FEEL THE SONG! :)
This is the intro (I think) that The Ukulele Teacher made in his Despacito tutorial.
*h=Hammer
p=Pull off
/=Slide up
Bm Bm
A|-2-h-4-p-2-----2-------------------|
E|-2----------5----------------------|
C|-2---------------------------------|
G|-4---------------------------------|


A|-2---4--5--7--9--5--9--------------|
E|-2---------------------------------|
C|-2---------------------------------|
G|-2---------------------------------|

Bm Bm...
A|-4-/-5----3-/-4------2-------------|
E|-4-/-5----3-/-4------2-------------|
C|-4-/-5----3-/-4------2-------------|
G|---------------------4-------------|

 

Tab comments (1)
You must be logged in to join the discussion
or Register

 

Cactus_21 avatar
flag for PH(ISO2) (Baguio City)
The "5" on the E string in the first part is after the pull off on the "2" on the A string. :)
07 Jul 2017
About this song

No information about this song.