Divenire Uke tab by Ludovico Einaudi

Ukulele Tab without chords.

Add tab to your SongBook
Tablature / ChordsFont size: A- A A+

Don't know how to read a tab or a chord ? Check out these uke lessons:

Detailed guide to strumming and picking
How to read uke tabs
Reading chord diagrams

A|-0-----------------------------------------------------4------------------|
E|-55-5-5-5-5-5-5-5---5-5-5-5-5-5-5-5---------------------5-5-5-5-5-5-5-5--|
C|-------------------5-----------------72-2-2-2-2-2-2-2--4-----------------|
G|---0-0-0-0-0-0-0-0-5-0-0-0-0-0-0-0-0-4-0-0-0-0-0-0-0-0-12-0-0-0-0-0-0-0-0-|

A|-0---------------------------------------------------------------------|
E|-55-5-5-5-5-5-5-5---5-5-5-5-5-5-5-5------------------------------------|
C|-------------------5-----------------72-2-2-2-2-2-2-2-2-2-2-2-2-2-2-2--| G|---0-0-0-0-0-0-0-0-5-0-0-0-0-0-0-0-0-4-0-0-0-0-0-0-0-0-0-0-0-0-0-0-0-0-|

A|-0------------------------------------------------------------------------0------------------|
E|---------------------------------------------------------------------------------------------|
C|---------------------------5--------------------------4--------------------------------------|
G|-55-05-05-05-05-05-05-05-0-9-5-05-05-05-05-05-05-05-0-7--4040404040404040-4-4040404040404040-|
A|-0-------------------------------------------------------------------------------------------|
E|---------------------------------------------------------------------------------------------|
C|---------------------------5--------------------------4--------------------------------------| G|-55-05-05-05-05-05-05-05-0-9-5-05-05-05-05-05-05-05-0-7-40404040404040404040404040404040-----|
A|-0----0---0--------------------0----0---0-------------|
E|-55-5-55---5-5--55-5-55---5-5-------------------------|
C|----------------5----5---5----------------------------| G|---0----0-5-0-0---0----0-5-0-0-4404-440-7404040404040-|

A|-0-------0-----0---------0-------0-----0--------0-----0----0-------------|
E|----------------------------------------------------------------5-5-5-5--|
C|-------------------------------------------------------------------------| G|-55-05---55-0--9-5-05-0--55-05---55-0--95-05-0--4404--440--74040-0-0-0-0-|
P P
A|-3-----------5-----5-----3-----------5-----5--7-5-----|
E|-0-----0-----3-----2-----0--0--0--0--3----------------|
C|-------0-----------2-----------0--------2--2-2--------|
G|-2-----0-----0-----2-----2-----0-----0-----4------5-4-|
P P
A|-0--3-------------2----3----------------0--3-------------2----3--------7-5-----|
E|--0---0----0----0-3----3-----------------0---0----0----0-3----3----------------|
C|--------0----0-------2----2-2--2-2--2----------0----0-------2----2-2-----------|XG|---2-2----0--7-0----0----0----4--9-4------2-2----0--7-0----0----0----4-----5-4-|

A|-0-3--0-3-----------5-3--5----5----5----7-----0--3--------5-3--------2------5---|
E|-0----0----0----1-0------3----3----------------0---0--------------3-------------|
C|-----------0----------------2----2-4--2-4--2---------0-------------2---2-42---2-|
G|----2----2-----------------0----0----4----4-----2-2-----------4-2---0-0----4-4--|

A|-7----7----7----------7-5----5-------------5-3--0----0-------3--------5--5----5-------2----|
E|-5--5-5--5-5----5-3-1---3----3----0----1-0---------0----0--1------1-0----3----3-----0---0--|
C|---------------------------2----2-7-----------------------------------------2----2-4-------|
G|---5----5-----------------0----0----------------5-2--5-2------2------------0----0----0-0---|
P P
A|-0--3-------------2----3----------------0--3-------------2----3--------7-5-----|
E|--0---0----0----0-3----3-----------------0---0----0----0-3----3----------------|
C|--------0----0-------2----2-2--2-2--2----------0----0-------2----2-2-----------| G|---2-2----0--7-0----0----0----4--9-4------2-2----0--7-0----0----0----4-----5-4-|
P P
A|------------------7---------2----2------2-----2----------------------------2----2-----2---------------|
E|-5--5----5---------------------------------------5--5----5-------------------------------------------|
C|------9-------4---12--4---4----4-----4-----4-----------9------4------4---4----4----4-------4----------| G|---5--4-5---5--5--7---5--4--0-5--0--7---0-9---0----5--4-5--5--5--75--5--4--0-5--0-7-------9--7--5--4-|
H H H P H H H P
A|-0--2-3-------2-3------2-5-2--2-----0--2-3------2-3------2-5-2--2-|
E|--0-----0---------0-3---------0------0-----3--------3-3---------0-|
C|----------5-2--------2-----------------------52--------2----------| G|---2---------2--------0-------0-------2--------2--------0-------0-|
H P H P H P
A|-0---0---0-2-3----------3--5-3-2-3--2----2-----------2--0---0---3--5-3-2-3----------3--5-3-2-3--5----5---|
E|---0---0----------0---0-------------3----3----------------0---0---------------0---0-------------3----3---|
C|----------------0---0-----------------2-------------------------------------0---0-----------------2------| G|-5---5---5-----------------------------0-----------2----5---5--------------------------------------0-----|
H P H P H P H P
A|-3-5-0---0----------5---------------5-------5--------2--0---0---3--5-3-2-3----------3--5-3-2-3--5----5---|
E|-----0---0----0--1-0--0-------0--1-0--0-3---3-------------0---0---------------0---0-------------3----3---|
C|------------------------50-5-------------2----------------------------------0---0-----------------2------| G|-------2---2---------------2--------------0--------2----5---5--------------------------------------0-----|
P P P P P H P H P
A|--5-3-0---5-3-0---5-3-----5-3----5-5-3----5----------2--0---0---3--5-3-2-3----------3--5-3-2-3--5----5---|
E|-0-------0-------0-------0--------0-----0-----------------0---0---------------0---0-------------3----3---|
C|----------------------0-------0---------7---2-------------------------------0---0-----------------2------| G|------5-------5----------------------------0-------2----5---5--------------------------------------0-----|
P P P P P H P H P
A|5-5-3-0-5-5-3-0-5-5-3---5-5-3----5-5-3----5----------2--0---0---3--5-3-2-3----------3--5-3-2-3--5----5---|
E|-0-------0-------0-------0--------0-----0-----------------0---0---------------0---0-------------3----3---|
C|----------------------0-------0---------7---2-------------------------------0---0-----------------2------| G|------5-------5----------------------------0-------2----5---5--------------------------------------0-----|
H P H P
A|----------------5---5---5--7-5---5--0-3-0---------------------5---5---5--7-5------0-3--0------------|
E|-5-5-5-5-5-5-3--3---3---------------0----------5-5-5-5-5-5-3--3---3------------1--0-----------------|
C|---5---5----------2---2--------------------------5---5----------2---2-------------------------------|
G|-------------------------------5-------2-------------------------------------5--------2-------------|
P
A|---------------------------------3--0---3-------3--|
E|-5-5-5-5-5-----3--------5--3--3-0--0--0------------|
C|---5---5------------2---------------------6-2---6--|
G|-----------5-4----4---4-----------2-----------2----|
H P H P
A|---2--3---3----2--3-2--2-----2-------5-3-2-0-----3---3-------3-------2--3---3----2--3-2--2-----2----5-3-2-|
E|--------1---1----------3-----3---------------0-----0----------------------1---1----------3-----3----------|
C|------5---5--------------2-----------------------------6-2---6----------5---5--------------2--------------|
G|-2-------------------------0-------------------2-----------2-------2-------------------------0------------|

A|------------------------| E|-5----------------------|
C|-------------4-----4----|
G|-------5-----4-----7----|
P P
A|-------------------------------------------------------------| E|-5--------------------------5--------------------------------|
C|--------------4-----4--------------------4-----4-------------|
G|----4--5--7---4--5--7---9------4--5--7---4--5--7---9--7-5--4-|

 

Tab comments (0)
No comment yet :(
Need help, a tip to share, or simply want to talk about this song? Start the discussion!

You must be logged in to join the discussion
or Register

 

About this song

Beautiful emotional atmospheric piano music like no other. Read more on Last.fm.