Royals Uke tab by Lourde

Ukulele Tab without chords.

Add tab to your SongBook
Tablature / ChordsFont size: A- A A+

Don't know how to read a tab or a chord ? Check out these uke lessons:

Detailed guide to strumming and picking
How to read uke tabs
Reading chord diagrams

A-----------------------------------------------------------------------|
E-5-5-5-5-5---------5----5-5-5---------5--3-5-3-2---5-5-5-------------5-|
C-----------2-2----------------2-2------------------------2-2-----2-----|
G---------------5-5----------------5-5------------------------5-5---5---|

A--------------------------------------------------------------------------|
E-------3-2-----3-2------------2-----5-5----2-2-2-2-----5-5----2-2-2-2-----|
C-2-2-2-----2-2-----4-2--2-2-4---4-2----2-2---------2-2----2-2---------2-2-|
G--------------------------------------------------------------------------|

A--------------------------------------------------------------------|
E----------------------------5-3-------2-----5-5-----2-2-2-2-----5-5-|
C--------------------------------2-2-4---4-2-----2-2---------2-2-----|
G-5--4-5----5--5--5--4-4-4-4-----------------------------------------|

A----------------------------------------------------------------------------|
E-5-5-----2-2-2-2-----5-5------------------------5--3---------2-5--2--------|
C-----2-2---------2-2--------4-2-4--------------------2-2-2-4---------------|
G----------------------------------5-5-4-4-4-4-4----------------------11--7--|

A-------------------------------------------------------------------------|
E---------2-5--2-------2-2-2-2-2-3-5---5--5--5--5--3---------------------|
C-2-2-2-4----------------------------------------------2-2-5--5--5--4-2--|
G----------------11--7----------------------------------------------------|

A----------------------------------------------------------------------------|
E-5-5-5-5-5---------5----5-5-5---------5--3-5-3-2---5-5-5--------3-2------5--|
C-----------2-2----------------2-2------------------------2-2-4-----4-2------|
G---------------5-5----------------5-5----------------------------------4----|

A--------------------------------------------------------------------------|
E-------3-2-----3-2------------2-----5-5----2-2-2-2-----5-5----2-2-2-2-----|
C-2-2-2-----2-2-----4-2--2-2-4---4-2----2-2---------2-2----2-2---------2-2-|
G--------------------------------------------------------------------------|

A---------------------------------------------------------------------|
E----------------------------5--3-------2----5-5------2-2-2-2----5-5--|
C---------------------------------2-2-4---4-2-----2-2---------2-2-----|
G-5--4-5----5--5--5--4-4-4-4------------------------------------------|

A----------------------------------------------------------------------------|
E-5-5-----2-2-2-2-----5-5------------------------5--3---------2-5--2--------|
C-----2-2---------2-2--------4-2-4--------------------2-2-2-4---------------|
G----------------------------------5-5-4-4-4-4-4----------------------11--7--|

A-----------------------------------------------------------------------------|
E---------2-5--2-------2-2-2-2-2-3-5---5--5--5--5--3-------------------------|
C-2-2-2-4-------------------------------------------------2-2-5--5--5--4-2---|
G----------------11--7--------------------------------------------------------|
S S S S S P H
A--------------------------------------------------------------------------|
E------------------5--3-------------------5-3-------------------5--3-5--3--|
C--6--4-2-----6--4-2------4-2-----------------6--4-2-----6--4-2------------|
G-----------------------------5-4-4-4-4-4----------------------------------|

A-----------------------------------------------------------------------------|
E----------------------5-3---------2-5--2-------2-2-2-2-2-3-5---5------------|
C-4-2----------------------2-2-2-4-------------------------------------------|
G-----5--5-5-4-4-4-4-4--------------------11--7-------------------------------|

A----------------------------------------------------------------------------------|
E---------------2---3----------5-------2-5--2--------2-2-2-2-2-3-5--5--5--5--5--3-|
C-4-4-4-2-4--4---------2-2-2---2-2-2-4--------------------------------------------|
G-----------(-)--------------5---------------11--7---------------------------------|

A----------------------------------------------------------------------|
E----------------------------------------------------------------------|
C-2-2-5--5--5--4-2-----------------------------------------------------|
G----------------------------------------------------------------------|

 

Tab comments (0)
No comment yet :(
Need help, a tip to share, or simply want to talk about this song? Start the discussion!

You must be logged in to join the discussion
or Register

 

About this song

"Royals" is the debut song by New Zealand singer-songwriter Lorde from her The Love Club EP (2012) and debut album, Pure Heroine (2013). The song was released on 8 March 2013, as the lead single from the EP. Lorde and Joel Little co-wrote and produced the song. Musically, "Royals" is a minimal and art pop song. Lyrically, it expresses the protagonist's disdain for the lavish lifestyles of music stars.Upon release "Royals" was met with acclaim, and won the 2013 APRA Silver Scroll award, New Zealand's top songwriting prize. Read more on Last.fm.