Burn (Intro) Uke tab by Lin-Manuel Miranda

Ukulele Tab without chords.

Add tab to your SongBook
Tablature / ChordsFont size: A- A A+

Don't know how to read a tab or a chord ? Check out these uke lessons:

Detailed guide to strumming and picking
How to read uke tabs
Reading chord diagrams

#intro to Burn,Hamilton

A:-2-5-9-10-9-5-|-1-3-9-10-9-5--|
E:------------------------------|
C:------------------------------|
G:------------------------------|

A:-2-5-9-10-9-5-10-9-5-10-9-5---|
E:------------------------------|
C:------------------------------|
G:------------------------------|
(Again)
A:-2-5-9-10-9-5-|-1-3-9-10-9-5--|
E:------------------------------|
C:------------------------------|
G:------------------------------|

A:-2-5-9-10-9-5-10-9-5-10-9-5---|
E:------------------------------|
C:------------------------------|
G:------------------------------|

 

Tab comments (1)
You must be logged in to join the discussion
or Register

 

popupanda3 avatar
The first few notes are correct, the rest are not
04 Jan 2020
About this song

No information about this song.