Burn (Intro) Uke tab by Lin-Manuel Miranda

Ukulele Tab without chords.

Add tab to your SongBook
Tablature / ChordsFont size: A- A A+

Don't know how to read a tab or a chord ? Check out these uke lessons:

Detailed guide to strumming and picking
How to read uke tabs
Reading chord diagrams

A|----9-10-9---------9-10-9-------|
E|7-10-------10--6-10-------10----|
C|--------------------------------|
G|--------------------------------|

A|10-9---10-9---------------------|
E|----10-----10-------------------|
C|--------------------------------|
G|--------------------------------|

 

Tab comments (1)
You must be logged in to join the discussion
or Register

 

tue_moi avatar
flag for US(ISO2) (Las Vegas)
Amazing! Sounds very similar to the original song and is very easy was well!
12 Sep 2018
About this song

No information about this song.