Ella (Intro) Uke tab by Junior H

Ukulele Tab without chords.

Rate song!
PrintAdd tab to your SongBook

Tablature / Chords (Intro)

Font size: A- A A+

Artist: 
Album:  unknown
Key: unknownTablature (no chords)
REQUINTEO INTRO

A|-------------------------
E|--3/5-5-5-5-5-5-5--4--3--
C|-------------------------
G|-------------------------

A|-------------------------
E|--3/5--3/5--3/5--1-------
C|------------------------2
G|-------------------------

A|-------5-----------------
E|--3/5-----5--4--3--------
C|-------------------------
G|-------------------------

A|---------------------------------
E|--3/5--3/5--3/5--1-----------1--0
C|-----------------------2---------
G|---------------------------------

A|----------------------------
E|--1-1-1--0-0-0--------------
C|----------------2-2-2--0-0-0
G|----------------------------

A|----------------------------------
E|--1-1-1--0-0-0--------------------
C|-----------------2-2-2--0-0-0--0h2
G|----------------------------------

A|--3h5--5-5--5-5--3-----------
E|----------------------5--4--3
C|-----------------------------
G|-----------------------------

A|--3h5--5-5--5-5--3---------------
E|----------------------5--4--3/1--
C|--------------------------------2
G|---------------------------------

A|--3h5--5-5--5-5--3-----------
E|----------------------5--4--3
C|-----------------------------
G|-----------------------------

A|--3h5--5-5--5-5--3---------------
E|----------------------5--4--3/1--
C|--------------------------------2
G|---------------------------------

A|--------------------------
E|--------------------------
C|--3/9--9-9--9-9--9-9--8--7
G|--------------------------

A|-------------------------------
E|------------------------------3
C|--1/4--4-4--4-4--4-4--3--2-----
G|-------------------------------

⇢ Not happy with this tab? View 1 other version(s)

Uke tab by , 21 Nov 2022

Tab comments (2)

Something to say?
Share your strumming patterns, chords or tips to play this tab! ;)
Filter by:
Therazer56 avatar
flag for CO(ISO2) (Bogota)
Hola gente me equivoqué esta canción no es Ella, se llama intro es del mismo artista :)
02 Dec 2022
Comment
Therazer56 avatar
flag for CO(ISO2) (Bogota)
Hola gente me equivoqué esta canción no es Ella, se llama intro es del mismo artista :)
02 Dec 2022
Comment

Top Tabs & Chords by Junior H, don't miss these songs!

About this song: Ella

No information about this song.

Did you cover Ella on your Ukulele? Share your work!
Submit a cover