Wanted Man Uke tab by Johnny Cash

4 Chords used in the song: D,Em,A,G

Add tab to your SongBookEdit Tab
Tablature / ChordsFont size: A- A A+

Don't know how to read a tab or a chord ? Check out these uke lessons:

Detailed guide to strumming and picking
How to read uke tabs
Reading chord diagrams

Intro :

A--0-2-5-5-5-5---2-5-5-5--2-------5----0-4-------4----------5-5-5---5-------|
E---------------------------0-0-0---0------0-0-0---0-0-2-0------------------|
C---------------------------------------------------------------------------|
G---------------------------------------------------------------------------|

Verse 1:
D D Em Em
Wanted man in California,wanted man in Buffalo
A A G G D D
Wanted man in Kansas city,wanted man in Ohio
D D Em Em
Wanted man in Mississppi,wanted man in ol' Cheyenne
A A
D D
Wherever you might look tonight you might see this wanted man


Verse 2:
D D Em Em
I might be in Colorado,or Georgia by the sea
A A
D D
Working for some man who may not know at all who i might be
D D Em Em
If you ever see me coming and if you know who i am
A A
D D
Don't you breathe it to nobody 'cause you know i'm on the lamb


Verse 3:
D D Em Em
Wanted man by Lucy Watson,wanted man by Jeannie Brown
A A G G
D D
Wanted man by Nellie Johnson,wanted man in this next town
D D Em Em
I've had all that i wanted of a lot of things i've had
A A G G
D D
And a lot more than i needed of some things that turned out bad


Solo X2 :

A--0-2-5-5-5-5---2-5-5-5--2-------5----0-4-------4----------5-5-5---5-------|
E---------------------------0-0-0---0------0-0-0---0-0-2-0------------------|
C---------------------------------------------------------------------------|
G---------------------------------------------------------------------------|


Verse 4:
D D Em Em
I got a sidetracked in El Paso,stopped to get myself a map
A A G G
D D
Went the wrong way in Pleura with Juanita on my back
D D Em Em
Went to sleep in Shreveport,woke up in Abilene
A A
D D
Wonderin' why the hell i'm wanted at some town half way between


Verse 5:
D D Em Em
Wanted man in Albuquerque,wanted man in Syracuse
A A G G
D D
Wanted man in Tallahassee,wanted man in Baton Rouge
D D Em Em
There's somebody sent to grab me anywhere that i might be
A A
G G D D
And wherever you might look tonight you might get a glimpse of me


Verse 6:
D D Em Em
Wanted man in California,wanted man in Buffalo
A A G G D D
Wanted man in Kansas city,wanted man in Ohio
D D Em Em
Wanted man in Mississppi,wanted man in ol' Cheyenne
A A
D D
Wherever you might look tonight you might see this wanted man


*Comments : [email protected]

 

Tab comments (0)
No comment yet :(
Need help, a tip to share, or simply want to talk about this song? Start the discussion!

You must be logged in to join the discussion
or Register

 

About this song

No information about this song.