Steel And Glass Uke tab by John Lennon

Ukulele Tab without chords.

Add tab to your SongBook
Tablature / ChordsFont size: A- A A+

Don't know how to read a tab or a chord ? Check out these uke lessons:

Detailed guide to strumming and picking
How to read uke tabs
Reading chord diagrams

Standard Tuning


Intro: Finger Pick A A minor

A|--3------3-------3-----3---------------------------------------------|
E|----0------0-------0-----0-------------------------------------------|
C|---------------------------------------------------------------------|
G|2------2-------2-----2-----------------------------------------------|
(This is a story about your friend and mine...
Who is it, who is it, who is it?)

Verse: Strum
A|-3-----------------3------------5----------2-------------------------|
E|---0------------------0-------2------------0-------------------------|
C|------------------------0--------------------------------------------|
G|---2--------------------------2---------1----------------------------|

A|------5--------5-----3-------5---------------------------------------|
E|----2--------2-------------2-----------------------------------------|
C|---------------------------------------------------------------------|
G|----2--------2-------------2-----------------------------------------|
There you stand with your L.A. tan
And your New York walk and your New York talk
You're mother left you when you were small
But you're gonna wish you wasn't born at all

Chorus:

(S) (P) (S)

A|---5-------5-----2------5--------------------------------------------|
E|---1-------1-------3----1--------------------------------------------|
C|---------------------------------------------------------------------|
G|---3-------3------------3--------------------------------------------|

(S)
A|-3-----------------3------------5--------5---------------------------|
E|---0------------------0-------2----------1---------------------------|
C|------------------------0--------------------------------------------|
G|---2--------------------------2----------3---------------------------|

A|-3-----------------3------------5----------2-------------------------|
E|---0------------------0-------2------------0-------------------------|
C|------------------------0--------------------------------------------|
G|---2--------------------------2---------1----------------------------|

A|-3-----------------3------------5--------5---------------------------|
E|---0------------------0-------2----------1---------------------------|
C|------------------------0--------------------------------------------|
G|---2--------------------------2----------3---------------------------|

A|-3-----------------3------------5----------2-------------------------|
E|---0------------------0-------2------------0-------------------------|
C|------------------------0--------------------------------------------|
G|---2--------------------------2---------1----------------------------|

A|------5--------5-----3-------5---------------------------------------|
E|----2--------2-------------2-----------------------------------------|
C|---------------------------------------------------------------------|
G|----2--------2-------------2-----------------------------------------|

A|-3-----------------3------------5----------2-------------------------|
E|---0------------------0-------2------------0-------------------------|
C|------------------------0--------------------------------------------|
G|---2--------------------------2---------1----------------------------|

A|-3-----------------3------------5--------5---------------------------|
E|---0------------------0-------2----------1---------------------------|
C|------------------------0--------------------------------------------|
G|---2--------------------------2----------3---------------------------|

 

Tab comments (0)
No comment yet :(
Need help, a tip to share, or simply want to talk about this song? Start the discussion!

You must be logged in to join the discussion
or Register

 

About this song

No information about this song.