I'm Forever Blowing Bubbles Uke tab by John Kellete (lyrics:

7 Chords used in the song: Bb, Eb, C7, F7, D7, Gm, D

Add tab to your SongBook
Tablature / ChordsFont size: A- A A+

Don't know how to read a tab or a chord ? Check out these uke lessons:

Detailed guide to strumming and picking
How to read uke tabs
Reading chord diagrams

Original tuning : -1.0 step(s) [ ? ]
# I'm Forever Blowing Bubbles (West Ham's "tune")

Bb Bb Eb Eb Bb Bb
I'm forever blowing bubbles
Eb Eb Bb Bb
Pretty bubbles in the air
Eb Eb Bb Bb
They fly so high
Eb Eb Bb Bb
Nearly reach the sky
C7 C7 F7 F7
Then like my dreams they fade and die
Bb Bb D7 D7
Fortune's always hiding
Gm Gm D D
I've looked every where
Bb Bb Eb Eb Bb Bb C7 C7
I'm forever blowing bubbles
F7 F7 Bb Bb
Pretty bubbles in the air


A-1--------1------1-1----1--3-1-0-1-----1------1--1-----1----1-0-1-----1----1-----
E-1--3-1-0-3---3--1------3--------3--3--1------3-----3--1----3------3--1----0--3--
C-2--------3------2------3--------3-----2------3--------2----3---------2----0-----
G-3--------3------3------3--------3-----3------3--------3----3---------3----0-----


A-0--1-----0--1--3-----5--4-5---1--3-0----1--3-1------0----1---------1------1-1---
E--------3-1-----1-----1-----------2------3--------3--2----1--3-1-0--3---3--1-----
C----------3-----3-----2-----------2------2-----------2----2---------3------2-----
G----------2-----2-----3-----------2------0-----------2----3---------3------3-----


A-1--0--1--5-3------0--1--
E-0--------1-1---3-----1--
C-0--------3-3---------2--
G-0--------2-2---------3--



# United, United
# playing tip.. try to keep on the chords as long as possible while picking the
# other bits. It seems to work strumming them whilst playing the tune as well.
# Also, the actual key is one note up (didn't realise this until after I'd written
# it out!) but it's easy to transpose up as the chords are pretty nice

 

Tab comments (0)
No comment yet :(
Need help, a tip to share, or simply want to talk about this song? Start the discussion!

You must be logged in to join the discussion
or Register

 

About this song

No information about this song.