The Woman I Love Uke tab by Jason Mraz

5 Chords used in the song: A, E, B, Dbm, Abm

Add tab to your SongBook
Tablature / ChordsFont size: A- A A+

Don't know how to read a tab or a chord ? Check out these uke lessons:

Detailed guide to strumming and picking
How to read uke tabs
Reading chord diagrams

A A  E E  B B  Dbm Dbm    A A  E E  B B  E E
------------------------------------------------------------
A A E E B B Dbm Dbm
Maybe I annoy you with my choices
A A E E
Well, you annoy me sometimes
Abm Abm Dbm Dbm B B
Too with your voice
A A E E
But that ain't enough for me to
Abm Abm Dbm Dbm B B
Move out and move on
A A E E B B E E
I'm just gonna love you like the woman I love
------------------------------------------------------------
A A E E B B E E
------------------------------------------------------------
A A E E B B Dbm Dbm
We don't have to hurry you can take as long as you want
A A E E
I'm holding steady
Abm Abm Dbm Dbm B B
And my heart's at home
A A E E
With my hand behind you
Abm Abm Dbm Dbm B B
I will catch you if you fall
A A E E B B E E
I'm just gonna love you like the woman I love
------------------------------------------------------------
B B
Sometimes the world can make you feel
Dbm Dbm
You're not welcome any-more
E E A A
And you beat yourself up you let yourself get mad
B B
And in those times when you stop loving
Dbm Dbm
The woman I adore
A A
You can relax because babe I got your back
A A
Mmm, I got you!
------------------------------------------------------------
A A E E B B Dbm Dbm A A E E Abm Abm Dbm Dbm B B
A A E E Abm Abm Dbm Dbm B B A A E E B B E E
A A E E B B E E
------------------------------------------------------------
# Play the following Tab with the next 3 lines of the lyrics

A|-0--------2-------------0-----------------|
E|-------0-----0--0-------------0-----0-----|
C|-------------------1-------------3--------|
G|----1----------------------1--------------|

# I don't wish to change you you've got it under control
# You wake up each day different
# Another reason for me to keep holding on
A A E E Abm Abm Dbm Dbm B B
I'm not attached to any way you're showing up
A A E E B B E E
I'm just gonna love you like the woman I love
------------------------------------------------------------
A A E E Abm Abm Dbm Dbm B B
Yeah I'm gonna love you. Oh yeah!
A A E E B B E E
I'm gonna love you, you're the woman I love
------------------------------------------------------------
A A E E B B Dbm Dbm A A E E Abm Abm Dbm Dbm B B
A A E E Abm Abm Dbm Dbm B B A A E E B B E E


# http://ukulily-filly.blogspot.com/2012/05/free-ukulele-tabs-with-lyrics.html

 

Tab comments (0)
No comment yet :(
Need help, a tip to share, or simply want to talk about this song? Start the discussion!

You must be logged in to join the discussion
or Register

 

About this song

No information about this song.