I Won't Give Up Uke tab by Jason Mraz

Ukulele Tab without chords.

Add tab to your SongBook
Tablature / ChordsFont size: A- A A+

Don't know how to read a tab or a chord ? Check out these uke lessons:

Detailed guide to strumming and picking
How to read uke tabs
Reading chord diagrams

Original tuning : +2.5 step(s) [ ? ]
A|------------------------------------------------3-3---------------3--2-----|
E|----------1--0--------------1--0--------------1---0----0-0-----3--3--3-----|
C|0-0-0-2-4-0--0----0-0-0-2-4-0--0----0-0-0-2-4-0---0--------2-0-2--2--2-----|
G|----------0--0--------------0--0--------------0---0------------0--0--0-----|



A|-----------------------------------------------------------------3--2------|
E|--------1--0------------1-3-3-----------------1--0----0-0-----3--3--3------|
C|0-0-2-4-0--0----0-0-2-4-0---0-2-4-----0-0-2-4-0--0--------2-0-2--2--2------|
G|--------0--0------------0---0-----------------0--0------------0--0--0------|



A|2/7-5-3-3-0----3-------3--3/7-5-3-3-0----3-------5---------|
E|--------1------1-------0----------0------0-------3---------|
C|--------0------0-------0----------0------0-------2---------|
G|--------2---0--2--0h2--0----------2---0--2--0h2--0---------|


A|5/7-5-3-3-0----3-------3--3-3/5--5--3-7-3--5---------------|
E|--------1------0-------0---------3--3------3---------------|
C|--------0------1-------0---------2--2------2---------------|
G|--------2---0--2--0h2--0---------0--0------0---------------|

 

Tab comments (0)
No comment yet :(
Need help, a tip to share, or simply want to talk about this song? Start the discussion!

You must be logged in to join the discussion
or Register

 

About this song

The i Won't Give Up Songfacts suggests this song was inspired by Mraz's relationship with his ex-fiancee, singer-songwriter Tristan Prettyman.