Bella Luna Uke tab by Jason Mraz

Ukulele Tab without chords.

Add tab to your SongBook
Tablature / ChordsFont size: A- A A+

Don't know how to read a tab or a chord ? Check out these uke lessons:

Detailed guide to strumming and picking
How to read uke tabs
Reading chord diagrams

Intro:
P P P P
A|-3/2----0---3--0-3--3-----3/2----2--5-2-5-2-5-2-5-------2-5-2-5-2-5-2-5-| E|------------0----0--0---------------1---1---1---1---------1---1---1---1-|
C|------------------------------------------------------------------------|
G|----2/0-----2----2--2--------2/0----2---2---2---2---------2---2---2---2-|


A|--0-3-0-3---0--------------|
E|----0---0---0--------------|
C|---------------------------|
G|----2---2---2--------------|

Verse:

A|-----7---7---7---7----12---12---12---12------12---12---12---12------| E|---5---5---5---5----7----7----7----7------7-----7----7----7---------|
C|-----9---9---9---9--------------------------------------------------|
G|----------------------7----7----7----7-------7----7----7----7-------|



A|-------------------------8---8---8---8---------------------------------| E|----5-5-5-5-5-5-5-5------5---5---5---5---5-5-5-5-5-5-5-5---------------|
C|------4---4---4---4----2-2-2-2-2-2-2-2-----4---4---4---4---------------|
G|-----------------------------------------------------------------------|



A|------------------------4----4---4----------------------------------------| E|------5---5---5---5----------------------------------------------------|
C|------2---2---2---2---4-4-4-4--4---------------------------------------| G|---4---4---4---4--------4---4--4---------------------------------------|


Then you do this guitar solo thing 2x:


S
A|------------------------------------------5-----5-----4--------------------| E|-----------------5--5-5-5---5---5--5------------------------------------|
C|--2--4--2-----------4---4---2---2--2--2/5-5--5-5--4-4-------------------|
G|-----------5--4-----------4--4------------5----5----4-------------------|



then you repeat the verse 1x

Chorus 1x:



A|-----8---8--------------7---7-------------8---8---8---8---4----4---4------| E|-----5---5-3--33--3-----3---3---1---1-----5---5---5---5----------------|
C|---2-2-2-2----2---2---0---0---5-0-5-0---2-2-2-2-2-2-2-2-4-4-4-4--4-----|
G|------------------------5---5-----------------------------4---4--4-----|




Then you repeat the guitarsolo 2x

Then you do the verse 1x

Then you do the chorus like this:




A|---------------8---8-------------7---7-------------8---8-------------| E|---5-5-5-5-----5---5--3-3-3-3----3---3---1---1-----5---5-------------|
C|-----4---4---2-2-2-2----2---2--0---0---5-0-5-0---2-2-2-2-------------|
G|---------------------------------5---5-------------------------------|



A|----4----4---4------------------------------8---8-------------7---7------| E|-----------------------------5-5-5-5-----5---5-3-3-3-3-----3---3------|
C|--4-4-4-4--4--2--4--2----------4---4---2-2-2-2---2---2---0---0--------|
G|----4---4--4-----------5--4--------------------------------5---5------|



A|-------------8---8----4----4---4---------------------| E|---1---1-----5---5-----------------------------5--|
C|-5-0-5-0---2-2-2-2--4-4-4-4--4--2--4--2-----------|
G|----------------------4---4--4-----------5--4-----|




Then you do the verse 1x

then you do the chorus:


A|-----8---8--------------7---7-------------8---8---8---8---4----4---4------| E|-----5---5-3--33--3-----3---3---1---1-----5---5---5---5----------------|
C|---2-2-2-2----2---2---0---0---5-0-5-0---2-2-2-2-2-2-2-2-4-4-4-4--4-----|
G|------------------------5---5-----------------------------4---4--4-----|



A|-5--7--5-------------------|
E|----------8--7-------------|
D|---------------------------|
G|---------------------------|



A|---------------8---8-------------7---7-------------8---8---4----4---4---| E|---5-5-5-5-----5---5--3-3-3-3----3---3---1---1-----5---5-------------|
C|-----4---4---2-2-2-2----2---2--0---0---5-0-5-0---2-2-2-2-4-4-4-4--4--|
G|---------------------------------5---5---------------------4---4--4--|


Then you do the guitarsolo 2x

Then you end with this:



A|-5--7--5-------------------|
E|----------8--7--5----------|
D|---------------------------|
G|---------------------------|

 

Tab comments (1)
You must be logged in to join the discussion
or Register

 

Studium2 avatar
Check this out. Here's my version of the song. You can add it to your tab!! :) http://www.ukulele-tabs.com/uke-songs/jason-mraz/bella-luna-uke-tab-24164.html
23 Aug 2012
About this song

No information about this song.